ISO-10303-21;
HEADER;
FILE_DESCRIPTION (( 'STEP AP203' ),
    '1' );
FILE_NAME ('524215.STEP',
    '2024-06-12T02:07:07',
    ( 'Windows User' ),
    ( 'P R C' ),
    'SwSTEP 2.0',
    'SolidWorks 2020',
    '' );
FILE_SCHEMA (( 'CONFIG_CONTROL_DESIGN' ));
ENDSEC;

DATA;
#1 = CARTESIAN_POINT ( 'NONE',  ( 0.000000000000000000, 25.00000000000000000, 0.000000000000000000 ) ) ;
#2 = PERSON_AND_ORGANIZATION_ROLE ( 'creator' ) ;
#3 = CALENDAR_DATE ( 2024, 12, 6 ) ;
#4 = AXIS2_PLACEMENT_3D ( 'NONE', #297, #78, #32 ) ;
#5 = PERSON ( 'Î´Ö¸¶¨', 'Î´Ö¸¶¨', 'Î´Ö¸¶¨', ('Î´Ö¸¶¨'), ('Î´Ö¸¶¨'), ('Î´Ö¸¶¨') ) ;
#6 = CARTESIAN_POINT ( 'NONE',  ( 9.719289064679410117, 249.6491374965129353, 4.859644532339705059 ) ) ;
#7 =( GEOMETRIC_REPRESENTATION_CONTEXT ( 3 ) GLOBAL_UNCERTAINTY_ASSIGNED_CONTEXT ( ( #173 ) ) GLOBAL_UNIT_ASSIGNED_CONTEXT ( ( #71, #114, #92 ) ) REPRESENTATION_CONTEXT ( 'NONE', 'WORKASPACE' ) );
#8 = CARTESIAN_POINT ( 'NONE',  ( 0.000000000000000000, 0.5000000001018634066, 0.000000000000000000 ) ) ;
#9 = FACE_BOUND ( 'NONE', #41, .T. ) ;
#10 = DIRECTION ( 'NONE',  ( 0.000000000000000000, 1.000000000000000000, 0.000000000000000000 ) ) ;
#11 = CARTESIAN_POINT ( 'NONE',  ( -8.764809086609997024, 250.0000000000000000, -4.382404543305000288 ) ) ;
#12 = CARTESIAN_POINT ( 'NONE',  ( 0.000000000000000000, 249.8656410339957858, 4.791987176903720780 ) ) ;
#13 = VERTEX_POINT ( 'NONE', #102 ) ;
#14 = CARTESIAN_POINT ( 'NONE',  ( -9.218466664468715877, 250.0000000000000284, -4.609233332234357938 ) ) ;
#15 = DIRECTION ( 'NONE',  ( 0.000000000000000000, 1.000000000000000000, 0.000000000000000000 ) ) ;
#16 = EDGE_LOOP ( 'NONE', ( #211 ) ) ;
#17 = PRODUCT_RELATED_PRODUCT_CATEGORY ( 'detail', '', ( #305 ) ) ;
#18 = EDGE_LOOP ( 'NONE', ( #87 ) ) ;
#19 = CIRCLE ( 'NONE', #196, 2.499999999999998224 ) ;
#20 = PRODUCT_DEFINITION ( 'Î´Öª', '', #162, #29 ) ;
#21 = EDGE_CURVE ( 'NONE', #13, #13, #111, .T. ) ;
#22 = DATE_AND_TIME ( #3, #301 ) ;
#23 = DIRECTION ( 'NONE',  ( 0.000000000000000000, 0.000000000000000000, 1.000000000000000000 ) ) ;
#24 = PERSON_AND_ORGANIZATION_ROLE ( 'design_supplier' ) ;
#25 = APPROVAL_ROLE ( '' ) ;
#26 = APPROVAL_STATUS ( 'not_yet_approved' ) ;
#27 = COORDINATED_UNIVERSAL_TIME_OFFSET ( 8, 0, .AHEAD. ) ;
#28 = CARTESIAN_POINT ( 'NONE',  ( 9.719289064679410117, 249.6491374965129353, -4.859644532339705059 ) ) ;
#29 = DESIGN_CONTEXT ( 'detailed design', #288, 'design' ) ;
#30 = CARTESIAN_POINT ( 'NONE',  ( -9.719289064679410117, 249.6491374965129353, 4.859644532339705059 ) ) ;
#31 = FACE_OUTER_BOUND ( 'NONE', #88, .T. ) ;
#32 = DIRECTION ( 'NONE',  ( 0.000000000000000000, 0.000000000000000000, 1.000000000000000000 ) ) ;
#33 = DIRECTION ( 'NONE',  ( 0.000000000000000000, -0.000000000000000000, 1.000000000000000000 ) ) ;
#34 = DIRECTION ( 'NONE',  ( 0.000000000000000000, -0.000000000000000000, 1.000000000000000000 ) ) ;
#35 = CARTESIAN_POINT ( 'NONE',  ( 9.218466664468715877, 250.0000000000000284, -4.609233332234357938 ) ) ;
#36 = CARTESIAN_POINT ( 'NONE',  ( 0.000000000000000000, 250.0000000000000000, -4.609233332234357938 ) ) ;
#37 = AXIS2_PLACEMENT_3D ( 'NONE', #76, #172, #52 ) ;
#38 = ORIENTED_EDGE ( 'NONE', *, *, #21, .T. ) ;
#39 = EDGE_LOOP ( 'NONE', ( #181 ) ) ;
#40 = EDGE_LOOP ( 'NONE', ( #63 ) ) ;
#41 = EDGE_LOOP ( 'NONE', ( #135 ) ) ;
#42 = APPROVAL_PERSON_ORGANIZATION ( #168, #209, #112 ) ;
#43 = EDGE_CURVE ( 'NONE', #201, #201, #292, .T. ) ;
#44 = EDGE_CURVE ( 'NONE', #176, #176, #156, .T. ) ;
#45 = AXIS2_PLACEMENT_3D ( 'NONE', #220, #246, #146 ) ;
#46 = CARTESIAN_POINT ( 'NONE',  ( 0.000000000000000000, 0.5000000000000004441, -6.000000000000000888 ) ) ;
#47 = APPROVAL_STATUS ( 'not_yet_approved' ) ;
#48 = DIRECTION ( 'NONE',  ( -0.000000000000000000, -1.000000000000000000, -0.000000000000000000 ) ) ;
#49 = CALENDAR_DATE ( 2024, 12, 6 ) ;
#50 = CALENDAR_DATE ( 2024, 12, 6 ) ;
#51 = CC_DESIGN_DATE_AND_TIME_ASSIGNMENT ( #22, #117, ( #20 ) ) ;
#52 = DIRECTION ( 'NONE',  ( 0.000000000000000000, 0.000000000000000000, 1.000000000000000000 ) ) ;
#53 = LOCAL_TIME ( 10, 7, 7.000000000000000000, #68 ) ;
#54 = FACE_BOUND ( 'NONE', #158, .T. ) ;
#55 = CARTESIAN_POINT ( 'NONE',  ( 8.764809086609997024, 250.0000000000000000, -4.382404543304998512 ) ) ;
#56 = CARTESIAN_POINT ( 'NONE',  ( -8.764809086609997024, 250.0000000000000000, 4.382404543304999400 ) ) ;
#57 = DIRECTION ( 'NONE',  ( 0.000000000000000000, 1.000000000000000000, 0.000000000000000000 ) ) ;
#58 = DIRECTION ( 'NONE',  ( -0.000000000000000000, -1.000000000000000000, -0.000000000000000000 ) ) ;
#59 = CARTESIAN_POINT ( 'NONE',  ( -8.764809086609998801, 250.0000000000000000, -4.382404543304999400 ) ) ;
#60 = FACE_BOUND ( 'NONE', #185, .T. ) ;
#61 = AXIS2_PLACEMENT_3D ( 'NONE', #175, #125, #223 ) ;
#62 = AXIS2_PLACEMENT_3D ( 'NONE', #251, #300, #81 ) ;
#63 = ORIENTED_EDGE ( 'NONE', *, *, #303, .F. ) ;
#64 = CC_DESIGN_DATE_AND_TIME_ASSIGNMENT ( #195, #93, ( #218 ) ) ;
#65 = EDGE_LOOP ( 'NONE', ( #159 ) ) ;
#66 = EDGE_LOOP ( 'NONE', ( #302 ) ) ;
#67 = LOCAL_TIME ( 10, 7, 7.000000000000000000, #194 ) ;
#68 = COORDINATED_UNIVERSAL_TIME_OFFSET ( 8, 0, .AHEAD. ) ;
#69 = CARTESIAN_POINT ( 'NONE',  ( 0.000000000000000000, 246.0000000000000000, 0.000000000000000000 ) ) ;
#70 = VERTEX_POINT ( 'NONE', #264 ) ;
#71 =( LENGTH_UNIT ( ) NAMED_UNIT ( * ) SI_UNIT ( .MILLI., .METRE. ) );
#72 = APPLICATION_PROTOCOL_DEFINITION ( 'international standard', 'config_control_design', 1994, #190 ) ;
#73 = ADVANCED_FACE ( 'NONE', ( #215, #140 ), #113, .T. ) ;
#74 = AXIS2_PLACEMENT_3D ( 'NONE', #204, #224, #150 ) ;
#75 = EDGE_CURVE ( 'NONE', #79, #79, #19, .T. ) ;
#76 = CARTESIAN_POINT ( 'NONE',  ( 0.000000000000000000, 239.8999999998977728, 0.000000000000000000 ) ) ;
#77 = CARTESIAN_POINT ( 'NONE',  ( -9.583974353807441560, 249.8656410339957574, 4.791987176903720780 ) ) ;
#78 = DIRECTION ( 'NONE',  ( 0.000000000000000000, 1.000000000000000000, 0.000000000000000000 ) ) ;
#79 = VERTEX_POINT ( 'NONE', #82 ) ;
#80 = DIRECTION ( 'NONE',  ( 0.000000000000000000, 1.000000000000000000, 0.000000000000000000 ) ) ;
#81 = DIRECTION ( 'NONE',  ( 0.000000000000000000, 0.000000000000000000, 1.000000000000000000 ) ) ;
#82 = CARTESIAN_POINT ( 'NONE',  ( 0.000000000000000000, 1.040949779275260987E-16, -2.499999999999998224 ) ) ;
#83 = CARTESIAN_POINT ( 'NONE',  ( 0.000000000000000000, 250.0000000000000000, 4.382404543304999400 ) ) ;
#84 = ADVANCED_FACE ( 'NONE', ( #200 ), #290, .F. ) ;
#85 = PRODUCT_DEFINITION_SHAPE ( 'NONE', 'NONE',  #20 ) ;
#86 = AXIS2_PLACEMENT_3D ( 'NONE', #260, #239, #138 ) ;
#87 = ORIENTED_EDGE ( 'NONE', *, *, #308, .T. ) ;
#88 = EDGE_LOOP ( 'NONE', ( #304, #234 ) ) ;
#89 = AXIS2_PLACEMENT_3D ( 'NONE', #69, #191, #166 ) ;
#90 = PERSON_AND_ORGANIZATION ( #5, #157 ) ;
#91 = DIRECTION ( 'NONE',  ( 0.000000000000000000, 0.000000000000000000, -1.000000000000000000 ) ) ;
#92 =( NAMED_UNIT ( * ) SI_UNIT ( $, .STERADIAN. ) SOLID_ANGLE_UNIT ( ) );
#93 = DATE_TIME_ROLE ( 'classification_date' ) ;
#94 = PERSON_AND_ORGANIZATION_ROLE ( 'classification_officer' ) ;
#95 = EDGE_CURVE ( 'NONE', #182, #130, #160, .T. ) ;
#96 = AXIS2_PLACEMENT_3D ( 'NONE', #202, #80, #34 ) ;
#97 = ADVANCED_FACE ( 'NONE', ( #295, #103 ), #101, .F. ) ;
#98 = CONICAL_SURFACE ( 'NONE', #307, 6.000000000085492502, 0.7853981633406048601 ) ;
#99 = CARTESIAN_POINT ( 'NONE',  ( 0.000000000000000000, 249.6491374965129637, -4.859644532339705059 ) ) ;
#100 = DIRECTION ( 'NONE',  ( 0.000000000000000000, 1.000000000000000000, 0.000000000000000000 ) ) ;
#101 = CYLINDRICAL_SURFACE ( 'NONE', #4, 1.649999999999998579 ) ;
#102 = CARTESIAN_POINT ( 'NONE',  ( 0.000000000000000000, 11.00000000000000000, -2.499999999999998224 ) ) ;
#103 = FACE_OUTER_BOUND ( 'NONE', #110, .T. ) ;
#104 = DIRECTION ( 'NONE',  ( 0.000000000000000000, -1.000000000000000000, 0.000000000000000000 ) ) ;
#105 = CARTESIAN_POINT ( 'NONE',  ( 0.000000000000000000, 239.9000000000000057, 1.649999999999998579 ) ) ;
#106 = CARTESIAN_POINT ( 'NONE',  ( -9.218466664468715877, 250.0000000000000284, 4.609233332234357938 ) ) ;
#107 = EDGE_LOOP ( 'NONE', ( #231 ) ) ;
#108 = CC_DESIGN_APPROVAL ( #209, ( #218 ) ) ;
#109 = EDGE_LOOP ( 'NONE', ( #258 ) ) ;
#110 = EDGE_LOOP ( 'NONE', ( #254 ) ) ;
#111 = CIRCLE ( 'NONE', #127, 2.499999999999998224 ) ;
#112 = APPROVAL_ROLE ( '' ) ;
#113 = CYLINDRICAL_SURFACE ( 'NONE', #235, 6.000000000000000888 ) ;
#114 =( NAMED_UNIT ( * ) PLANE_ANGLE_UNIT ( ) SI_UNIT ( $, .RADIAN. ) );
#115 = CALENDAR_DATE ( 2024, 12, 6 ) ;
#116 = CARTESIAN_POINT ( 'NONE',  ( 0.000000000000000000, 0.000000000000000000, 5.500000000040472514 ) ) ;
#117 = DATE_TIME_ROLE ( 'creation_date' ) ;
#118 = PERSON_AND_ORGANIZATION ( #5, #157 ) ;
#119 = COORDINATED_UNIVERSAL_TIME_OFFSET ( 8, 0, .AHEAD. ) ;
#120 = CARTESIAN_POINT ( 'NONE',  ( 0.000000000000000000, 249.6491374965129637, 4.859644532339705059 ) ) ;
#121 = FACE_OUTER_BOUND ( 'NONE', #184, .T. ) ;
#122 = CARTESIAN_POINT ( 'NONE',  ( 5.483787781522369726E-16, 250.0000000000000000, -4.382404543304999400 ) ) ;
#123 = CARTESIAN_POINT ( 'NONE',  ( 5.483787781522369726E-16, 250.0000000000000000, -4.382404543304999400 ) ) ;
#124 = CARTESIAN_POINT ( 'NONE',  ( 0.000000000000000000, 0.5000000000000004441, 0.000000000000000000 ) ) ;
#125 = DIRECTION ( 'NONE',  ( 0.000000000000000000, -1.000000000000000000, 0.000000000000000000 ) ) ;
#126 = CARTESIAN_POINT ( 'NONE',  ( 9.218466664468715877, 250.0000000000000284, 4.609233332234357938 ) ) ;
#127 = AXIS2_PLACEMENT_3D ( 'NONE', #256, #232, #131 ) ;
#128 = FACE_OUTER_BOUND ( 'NONE', #39, .T. ) ;
#129 = ADVANCED_FACE ( 'NONE', ( #9, #225 ), #149, .F. ) ;
#130 = VERTEX_POINT ( 'NONE', #177 ) ;
#131 = DIRECTION ( 'NONE',  ( 0.000000000000000000, 0.000000000000000000, -1.000000000000000000 ) ) ;
#132 = EDGE_CURVE ( 'NONE', #272, #272, #277, .T. ) ;
#133 = CC_DESIGN_APPROVAL ( #278, ( #20 ) ) ;
#134 = ORIENTED_EDGE ( 'NONE', *, *, #257, .T. ) ;
#135 = ORIENTED_EDGE ( 'NONE', *, *, #75, .F. ) ;
#136 = CIRCLE ( 'NONE', #62, 5.500000000040472514 ) ;
#137 = CC_DESIGN_PERSON_AND_ORGANIZATION_ASSIGNMENT ( #144, #2, ( #162 ) ) ;
#138 = DIRECTION ( 'NONE',  ( 1.000000000000000000, 0.000000000000000000, 0.000000000000000000 ) ) ;
#139 = AXIS2_PLACEMENT_3D ( 'NONE', #124, #10, #299 ) ;
#140 = FACE_OUTER_BOUND ( 'NONE', #65, .T. ) ;
#141 = PERSON_AND_ORGANIZATION_ROLE ( 'design_owner' ) ;
#142 = VERTEX_POINT ( 'NONE', #46 ) ;
#143 = PERSON_AND_ORGANIZATION_ROLE ( 'creator' ) ;
#144 = PERSON_AND_ORGANIZATION ( #5, #157 ) ;
#145 = CC_DESIGN_SECURITY_CLASSIFICATION ( #218, ( #162 ) ) ;
#146 = DIRECTION ( 'NONE',  ( 0.000000000000000000, 0.000000000000000000, -1.000000000000000000 ) ) ;
#147 = CYLINDRICAL_SURFACE ( 'NONE', #45, 2.499999999999998224 ) ;
#148 = DIRECTION ( 'NONE',  ( 0.000000000000000000, 0.000000000000000000, 1.000000000000000000 ) ) ;
#149 = PLANE ( 'NONE',  #96 ) ;
#150 = DIRECTION ( 'NONE',  ( 0.000000000000000000, 0.000000000000000000, -1.000000000000000000 ) ) ;
#151 = DIRECTION ( 'NONE',  ( 0.000000000000000000, 0.000000000000000000, 1.000000000000000000 ) ) ;
#152 = CARTESIAN_POINT ( 'NONE',  ( -8.764809086609998801, 250.0000000000000000, 4.382404543304999400 ) ) ;
#153 = EDGE_CURVE ( 'NONE', #167, #167, #136, .T. ) ;
#154 = AXIS2_PLACEMENT_3D ( 'NONE', #273, #58, #151 ) ;
#155 = CARTESIAN_POINT ( 'NONE',  ( 0.000000000000000000, 250.0000000000000000, -4.382404543304999400 ) ) ;
#156 = CIRCLE ( 'NONE', #89, 6.000000000000000888 ) ;
#157 = ORGANIZATION ( 'Î´Ö¸¶¨', 'Î´Ö¸¶¨', '' ) ;
#158 = EDGE_LOOP ( 'NONE', ( #210 ) ) ;
#159 = ORIENTED_EDGE ( 'NONE', *, *, #44, .T. ) ;
#160 =( BOUNDED_CURVE ( )  B_SPLINE_CURVE ( 3, ( #249, #56, #11, #123 ),
 .UNSPECIFIED., .F., .F. ) 
 B_SPLINE_CURVE_WITH_KNOTS ( ( 4, 4 ),
 ( 0.000000000000000000, 1.000000000000000000 ),
 .UNSPECIFIED. ) 
 CURVE ( )  GEOMETRIC_REPRESENTATION_ITEM ( )  RATIONAL_B_SPLINE_CURVE ( ( 1.000000000000000000, 0.3333333333333333703, 0.3333333333333333703, 1.000000000000000000 ) ) 
 REPRESENTATION_ITEM ( '' )  );
#161 = ORIENTED_EDGE ( 'NONE', *, *, #95, .T. ) ;
#162 = PRODUCT_DEFINITION_FORMATION_WITH_SPECIFIED_SOURCE ( 'ÈÎºÎ', '', #305, .NOT_KNOWN. ) ;
#163 = CARTESIAN_POINT ( 'NONE',  ( 0.000000000000000000, 250.0000000000000000, 1.649999999999998579 ) ) ;
#164 = PERSON_AND_ORGANIZATION ( #5, #157 ) ;
#165 = AXIS2_PLACEMENT_3D ( 'NONE', #227, #57, #33 ) ;
#166 = DIRECTION ( 'NONE',  ( 0.000000000000000000, 0.000000000000000000, -1.000000000000000000 ) ) ;
#167 = VERTEX_POINT ( 'NONE', #116 ) ;
#168 = PERSON_AND_ORGANIZATION ( #5, #157 ) ;
#169 = MECHANICAL_CONTEXT ( 'NONE', #190, 'mechanical' ) ;
#170 = AXIS2_PLACEMENT_3D ( 'NONE', #205, #104, #229 ) ;
#171 = CC_DESIGN_PERSON_AND_ORGANIZATION_ASSIGNMENT ( #90, #24, ( #162 ) ) ;
#172 = DIRECTION ( 'NONE',  ( -0.000000000000000000, 1.000000000000000000, 0.000000000000000000 ) ) ;
#173 = UNCERTAINTY_MEASURE_WITH_UNIT (LENGTH_MEASURE( 1.000000000000000082E-05 ), #71, 'distance_accuracy_value', 'NONE');
#174 = CARTESIAN_POINT ( 'NONE',  ( 0.000000000000000000, 249.6491374965129637, 4.859644532339705059 ) ) ;
#175 = CARTESIAN_POINT ( 'NONE',  ( 0.000000000000000000, 11.00000000002410161, 0.000000000000000000 ) ) ;
#176 = VERTEX_POINT ( 'NONE', #296 ) ;
#177 = CARTESIAN_POINT ( 'NONE',  ( 5.483787781522369726E-16, 250.0000000000000000, -4.382404543304999400 ) ) ;
#178 = CARTESIAN_POINT ( 'NONE',  ( 8.764809086609998801, 250.0000000000000000, 4.382404543304999400 ) ) ;
#179 = LOCAL_TIME ( 10, 7, 7.000000000000000000, #27 ) ;
#180 = FACE_OUTER_BOUND ( 'NONE', #233, .T. ) ;
#181 = ORIENTED_EDGE ( 'NONE', *, *, #44, .F. ) ;
#182 = VERTEX_POINT ( 'NONE', #83 ) ;
#183 = CONICAL_SURFACE ( 'NONE', #170, 5.999999999971805664, 0.3028848683740845149 ) ;
#184 = EDGE_LOOP ( 'NONE', ( #259 ) ) ;
#185 = EDGE_LOOP ( 'NONE', ( #283 ) ) ;
#186 = ADVANCED_FACE ( 'NONE', ( #128, #60 ), #183, .T. ) ;
#187 = CC_DESIGN_APPROVAL ( #197, ( #162 ) ) ;
#188 = ADVANCED_FACE ( 'NONE', ( #180, #274 ), #193, .T. ) ;
#189 = APPROVAL_STATUS ( 'not_yet_approved' ) ;
#190 = APPLICATION_CONTEXT ( 'configuration controlled 3d designs of mechanical parts and assemblies' ) ;
#191 = DIRECTION ( 'NONE',  ( -0.000000000000000000, -1.000000000000000000, -0.000000000000000000 ) ) ;
#192 = DATE_AND_TIME ( #50, #179 ) ;
#193 =( BOUNDED_SURFACE ( )  B_SPLINE_SURFACE ( 3, 3, ( 
 ( #276, #178, #298, #155, #59, #152, #252 ),
 ( #203, #126, #35, #36, #14, #106, #230 ),
 ( #12, #226, #199, #294, #247, #77, #293 ),
 ( #174, #6, #28, #99, #222, #30, #120 ) ),
 .UNSPECIFIED., .F., .T., .T. ) 
 B_SPLINE_SURFACE_WITH_KNOTS ( ( 4, 4 ),
 ( 4, 3, 4 ),
 ( 0.000000000000000000, 1.000000000000000000 ),
 ( 0.000000000000000000, 0.5000000000000000000, 1.000000000000000000 ),
 .UNSPECIFIED. ) 
 GEOMETRIC_REPRESENTATION_ITEM ( )  RATIONAL_B_SPLINE_SURFACE ( (
 ( 1.000000000000000000, 0.3333333333333333148, 0.3333333333333333148, 1.000000000000000000, 0.3333333333333333148, 0.3333333333333333148, 1.000000000000000000),
 ( 0.8704604635415936764, 0.2901534878471978551, 0.2901534878471978551, 0.8704604635415936764, 0.2901534878471978551, 0.2901534878471978551, 0.8704604635415936764),
 ( 0.8704604635415936764, 0.2901534878471978551, 0.2901534878471978551, 0.8704604635415936764, 0.2901534878471978551, 0.2901534878471978551, 0.8704604635415936764),
 ( 1.000000000000000000, 0.3333333333333333148, 0.3333333333333333148, 1.000000000000000000, 0.3333333333333333148, 0.3333333333333333148, 1.000000000000000000) ) ) 
 REPRESENTATION_ITEM ( '' )  SURFACE ( )  );
#194 = COORDINATED_UNIVERSAL_TIME_OFFSET ( 8, 0, .AHEAD. ) ;
#195 = DATE_AND_TIME ( #115, #67 ) ;
#196 = AXIS2_PLACEMENT_3D ( 'NONE', #263, #48, #238 ) ;
#197 = APPROVAL ( #47, 'Î´Ö¸¶¨' ) ;
#198 = FACE_OUTER_BOUND ( 'NONE', #109, .T. ) ;
#199 = CARTESIAN_POINT ( 'NONE',  ( 9.583974353807441560, 249.8656410339957574, -4.791987176903720780 ) ) ;
#200 = FACE_OUTER_BOUND ( 'NONE', #284, .T. ) ;
#201 = VERTEX_POINT ( 'NONE', #105 ) ;
#202 = CARTESIAN_POINT ( 'NONE',  ( 0.000000000000000000, 0.000000000000000000, 0.000000000000000000 ) ) ;
#203 = CARTESIAN_POINT ( 'NONE',  ( 0.000000000000000000, 250.0000000000000000, 4.609233332234357938 ) ) ;
#204 = CARTESIAN_POINT ( 'NONE',  ( 0.000000000000000000, 249.6491374965103205, 0.000000000000000000 ) ) ;
#205 = CARTESIAN_POINT ( 'NONE',  ( 0.000000000000000000, 246.0000000000718501, 0.000000000000000000 ) ) ;
#206 = ORIENTED_EDGE ( 'NONE', *, *, #153, .F. ) ;
#207 = LOCAL_TIME ( 10, 7, 7.000000000000000000, #289 ) ;
#208 = EDGE_LOOP ( 'NONE', ( #206 ) ) ;
#209 = APPROVAL ( #26, 'Î´Ö¸¶¨' ) ;
#210 = ORIENTED_EDGE ( 'NONE', *, *, #153, .T. ) ;
#211 = ORIENTED_EDGE ( 'NONE', *, *, #132, .F. ) ;
#212 = ADVANCED_FACE ( 'NONE', ( #121, #198 ), #147, .F. ) ;
#213 = AXIS2_PLACEMENT_3D ( 'NONE', #279, #15, #23 ) ;
#214 = SHAPE_DEFINITION_REPRESENTATION ( #85, #269 ) ;
#215 = FACE_OUTER_BOUND ( 'NONE', #18, .T. ) ;
#216 = MANIFOLD_SOLID_BREP ( '×éºÏ1', #253 ) ;
#217 = SECURITY_CLASSIFICATION_LEVEL ( 'unclassified' ) ;
#218 = SECURITY_CLASSIFICATION ( '', '', #217 ) ;
#219 = CC_DESIGN_PERSON_AND_ORGANIZATION_ASSIGNMENT ( #118, #143, ( #20 ) ) ;
#220 = CARTESIAN_POINT ( 'NONE',  ( 0.000000000000000000, 0.000000000000000000, 0.000000000000000000 ) ) ;
#221 = ADVANCED_FACE ( 'NONE', ( #267 ), #236, .F. ) ;
#222 = CARTESIAN_POINT ( 'NONE',  ( -9.719289064679410117, 249.6491374965129353, -4.859644532339705059 ) ) ;
#223 = DIRECTION ( 'NONE',  ( 0.000000000000000000, 0.000000000000000000, -1.000000000000000000 ) ) ;
#224 = DIRECTION ( 'NONE',  ( 0.000000000000000000, -1.000000000000000000, 0.000000000000000000 ) ) ;
#225 = FACE_OUTER_BOUND ( 'NONE', #208, .T. ) ;
#226 = CARTESIAN_POINT ( 'NONE',  ( 9.583974353807441560, 249.8656410339957574, 4.791987176903720780 ) ) ;
#227 = CARTESIAN_POINT ( 'NONE',  ( 0.000000000000000000, 250.0000000000000000, 0.000000000000000000 ) ) ;
#228 =( BOUNDED_CURVE ( )  B_SPLINE_CURVE ( 3, ( #122, #55, #250, #248 ),
 .UNSPECIFIED., .F., .T. ) 
 B_SPLINE_CURVE_WITH_KNOTS ( ( 4, 4 ),
 ( 0.000000000000000000, 1.000000000000000000 ),
 .UNSPECIFIED. ) 
 CURVE ( )  GEOMETRIC_REPRESENTATION_ITEM ( )  RATIONAL_B_SPLINE_CURVE ( ( 1.000000000000000000, 0.3333333333333333703, 0.3333333333333333703, 1.000000000000000000 ) ) 
 REPRESENTATION_ITEM ( '' )  );
#229 = DIRECTION ( 'NONE',  ( 0.000000000000000000, 0.000000000000000000, -1.000000000000000000 ) ) ;
#230 = CARTESIAN_POINT ( 'NONE',  ( 0.000000000000000000, 250.0000000000000000, 4.609233332234357938 ) ) ;
#231 = ORIENTED_EDGE ( 'NONE', *, *, #132, .T. ) ;
#232 = DIRECTION ( 'NONE',  ( -0.000000000000000000, -1.000000000000000000, -0.000000000000000000 ) ) ;
#233 = EDGE_LOOP ( 'NONE', ( #161, #134 ) ) ;
#234 = ORIENTED_EDGE ( 'NONE', *, *, #95, .F. ) ;
#235 = AXIS2_PLACEMENT_3D ( 'NONE', #1, #287, #91 ) ;
#236 = CONICAL_SURFACE ( 'NONE', #37, 1.649999999870033207, 1.029744258665856727 ) ;
#237 = DATE_AND_TIME ( #49, #207 ) ;
#238 = DIRECTION ( 'NONE',  ( 0.000000000000000000, 0.000000000000000000, -1.000000000000000000 ) ) ;
#239 = DIRECTION ( 'NONE',  ( 0.000000000000000000, 0.000000000000000000, 1.000000000000000000 ) ) ;
#240 = PERSON_AND_ORGANIZATION ( #5, #157 ) ;
#241 = APPROVAL_DATE_TIME ( #237, #278 ) ;
#242 = DATE_AND_TIME ( #262, #53 ) ;
#243 = APPROVAL_DATE_TIME ( #242, #209 ) ;
#244 = APPROVAL_PERSON_ORGANIZATION ( #309, #197, #265 ) ;
#245 = ADVANCED_FACE ( 'NONE', ( #268, #54 ), #98, .T. ) ;
#246 = DIRECTION ( 'NONE',  ( -0.000000000000000000, -1.000000000000000000, -0.000000000000000000 ) ) ;
#247 = CARTESIAN_POINT ( 'NONE',  ( -9.583974353807441560, 249.8656410339957574, -4.791987176903720780 ) ) ;
#248 = CARTESIAN_POINT ( 'NONE',  ( 0.000000000000000000, 250.0000000000000000, 4.382404543304999400 ) ) ;
#249 = CARTESIAN_POINT ( 'NONE',  ( 0.000000000000000000, 250.0000000000000000, 4.382404543304999400 ) ) ;
#250 = CARTESIAN_POINT ( 'NONE',  ( 8.764809086609997024, 250.0000000000000000, 4.382404543304999400 ) ) ;
#251 = CARTESIAN_POINT ( 'NONE',  ( 0.000000000000000000, 0.000000000000000000, 0.000000000000000000 ) ) ;
#252 = CARTESIAN_POINT ( 'NONE',  ( 0.000000000000000000, 250.0000000000000000, 4.382404543304999400 ) ) ;
#253 = CLOSED_SHELL ( 'NONE', ( #84, #212, #129, #245, #73, #221, #97, #282, #188, #186 ) ) ;
#254 = ORIENTED_EDGE ( 'NONE', *, *, #43, .F. ) ;
#255 = CIRCLE ( 'NONE', #74, 4.859644532331230948 ) ;
#256 = CARTESIAN_POINT ( 'NONE',  ( 0.000000000000000000, 11.00000000000000000, 0.000000000000000000 ) ) ;
#257 = EDGE_CURVE ( 'NONE', #130, #182, #228, .T. ) ;
#258 = ORIENTED_EDGE ( 'NONE', *, *, #75, .T. ) ;
#259 = ORIENTED_EDGE ( 'NONE', *, *, #21, .F. ) ;
#260 = CARTESIAN_POINT ( 'NONE',  ( 0.000000000000000000, 0.000000000000000000, 0.000000000000000000 ) ) ;
#261 = APPROVAL_PERSON_ORGANIZATION ( #240, #278, #25 ) ;
#262 = CALENDAR_DATE ( 2024, 12, 6 ) ;
#263 = CARTESIAN_POINT ( 'NONE',  ( 0.000000000000000000, 1.040949779275260987E-16, 0.000000000000000000 ) ) ;
#264 = CARTESIAN_POINT ( 'NONE',  ( 0.000000000000000000, 249.6491374965103205, -4.859644532331230948 ) ) ;
#265 = APPROVAL_ROLE ( '' ) ;
#266 = APPLICATION_PROTOCOL_DEFINITION ( 'international standard', 'config_control_design', 1994, #288 ) ;
#267 = FACE_OUTER_BOUND ( 'NONE', #66, .T. ) ;
#268 = FACE_OUTER_BOUND ( 'NONE', #280, .T. ) ;
#269 = ADVANCED_BREP_SHAPE_REPRESENTATION ( '524215', ( #216, #86 ), #7 ) ;
#270 = CC_DESIGN_PERSON_AND_ORGANIZATION_ASSIGNMENT ( #164, #94, ( #218 ) ) ;
#271 = PLANE ( 'NONE',  #165 ) ;
#272 = VERTEX_POINT ( 'NONE', #163 ) ;
#273 = CARTESIAN_POINT ( 'NONE',  ( 0.000000000000000000, 250.0000000000000000, 0.000000000000000000 ) ) ;
#274 = FACE_OUTER_BOUND ( 'NONE', #40, .T. ) ;
#275 = FACE_BOUND ( 'NONE', #107, .T. ) ;
#276 = CARTESIAN_POINT ( 'NONE',  ( 0.000000000000000000, 250.0000000000000000, 4.382404543304999400 ) ) ;
#277 = CIRCLE ( 'NONE', #154, 1.649999999999998579 ) ;
#278 = APPROVAL ( #189, 'Î´Ö¸¶¨' ) ;
#279 = CARTESIAN_POINT ( 'NONE',  ( 0.000000000000000000, 239.9000000000000057, 0.000000000000000000 ) ) ;
#280 = EDGE_LOOP ( 'NONE', ( #306 ) ) ;
#281 = CIRCLE ( 'NONE', #139, 6.000000000000000888 ) ;
#282 = ADVANCED_FACE ( 'NONE', ( #275, #31 ), #271, .T. ) ;
#283 = ORIENTED_EDGE ( 'NONE', *, *, #303, .T. ) ;
#284 = EDGE_LOOP ( 'NONE', ( #38 ) ) ;
#285 = CC_DESIGN_PERSON_AND_ORGANIZATION_ASSIGNMENT ( #291, #141, ( #305 ) ) ;
#286 = APPROVAL_DATE_TIME ( #192, #197 ) ;
#287 = DIRECTION ( 'NONE',  ( -0.000000000000000000, -1.000000000000000000, -0.000000000000000000 ) ) ;
#288 = APPLICATION_CONTEXT ( 'configuration controlled 3d designs of mechanical parts and assemblies' ) ;
#289 = COORDINATED_UNIVERSAL_TIME_OFFSET ( 8, 0, .AHEAD. ) ;
#290 = CONICAL_SURFACE ( 'NONE', #61, 2.499999999997726263, 1.029744258685237446 ) ;
#291 = PERSON_AND_ORGANIZATION ( #5, #157 ) ;
#292 = CIRCLE ( 'NONE', #213, 1.649999999999998579 ) ;
#293 = CARTESIAN_POINT ( 'NONE',  ( 0.000000000000000000, 249.8656410339957858, 4.791987176903720780 ) ) ;
#294 = CARTESIAN_POINT ( 'NONE',  ( 0.000000000000000000, 249.8656410339957858, -4.791987176903720780 ) ) ;
#295 = FACE_OUTER_BOUND ( 'NONE', #16, .T. ) ;
#296 = CARTESIAN_POINT ( 'NONE',  ( 0.000000000000000000, 246.0000000000000000, -6.000000000000000888 ) ) ;
#297 = CARTESIAN_POINT ( 'NONE',  ( 0.000000000000000000, 250.0000000000000000, 0.000000000000000000 ) ) ;
#298 = CARTESIAN_POINT ( 'NONE',  ( 8.764809086609998801, 250.0000000000000000, -4.382404543304999400 ) ) ;
#299 = DIRECTION ( 'NONE',  ( 0.000000000000000000, 0.000000000000000000, -1.000000000000000000 ) ) ;
#300 = DIRECTION ( 'NONE',  ( 0.000000000000000000, 1.000000000000000000, 0.000000000000000000 ) ) ;
#301 = LOCAL_TIME ( 10, 7, 7.000000000000000000, #119 ) ;
#302 = ORIENTED_EDGE ( 'NONE', *, *, #43, .T. ) ;
#303 = EDGE_CURVE ( 'NONE', #70, #70, #255, .T. ) ;
#304 = ORIENTED_EDGE ( 'NONE', *, *, #257, .F. ) ;
#305 = PRODUCT ( '524215', '524215', '', ( #169 ) ) ;
#306 = ORIENTED_EDGE ( 'NONE', *, *, #308, .F. ) ;
#307 = AXIS2_PLACEMENT_3D ( 'NONE', #8, #100, #148 ) ;
#308 = EDGE_CURVE ( 'NONE', #142, #142, #281, .T. ) ;
#309 = PERSON_AND_ORGANIZATION ( #5, #157 ) ;
ENDSEC;
END-ISO-10303-21;
