ISO-10303-21;
HEADER;
FILE_DESCRIPTION (( 'STEP AP203' ),
    '1' );
FILE_NAME ('524213.STEP',
    '2024-06-12T02:05:48',
    ( 'Windows User' ),
    ( 'P R C' ),
    'SwSTEP 2.0',
    'SolidWorks 2020',
    '' );
FILE_SCHEMA (( 'CONFIG_CONTROL_DESIGN' ));
ENDSEC;

DATA;
#1 = EDGE_LOOP ( 'NONE', ( #261 ) ) ;
#2 = EDGE_CURVE ( 'NONE', #233, #268, #38, .T. ) ;
#3 = ORIENTED_EDGE ( 'NONE', *, *, #82, .F. ) ;
#4 = APPLICATION_PROTOCOL_DEFINITION ( 'international standard', 'config_control_design', 1994, #138 ) ;
#5 = PLANE ( 'NONE',  #6 ) ;
#6 = AXIS2_PLACEMENT_3D ( 'NONE', #30, #118, #291 ) ;
#7 = APPLICATION_PROTOCOL_DEFINITION ( 'international standard', 'config_control_design', 1994, #275 ) ;
#8 = APPROVAL_PERSON_ORGANIZATION ( #64, #119, #94 ) ;
#9 = CARTESIAN_POINT ( 'NONE',  ( 0.000000000000000000, 150.0000000000000000, 4.382404543304999400 ) ) ;
#10 = AXIS2_PLACEMENT_3D ( 'NONE', #151, #241, #269 ) ;
#11 = DIRECTION ( 'NONE',  ( 0.000000000000000000, 0.000000000000000000, 1.000000000000000000 ) ) ;
#12 = COORDINATED_UNIVERSAL_TIME_OFFSET ( 8, 0, .AHEAD. ) ;
#13 = CARTESIAN_POINT ( 'NONE',  ( 8.764809086609998801, 150.0000000000000000, 4.382404543304999400 ) ) ;
#14 = DIRECTION ( 'NONE',  ( -0.000000000000000000, -1.000000000000000000, -0.000000000000000000 ) ) ;
#15 = CC_DESIGN_PERSON_AND_ORGANIZATION_ASSIGNMENT ( #250, #191, ( #286 ) ) ;
#16 = DIRECTION ( 'NONE',  ( 0.000000000000000000, 0.000000000000000000, -1.000000000000000000 ) ) ;
#17 = CARTESIAN_POINT ( 'NONE',  ( 0.000000000000000000, 1.040949779275260987E-16, 0.000000000000000000 ) ) ;
#18 = PERSON_AND_ORGANIZATION ( #127, #152 ) ;
#19 = DIRECTION ( 'NONE',  ( 0.000000000000000000, 0.000000000000000000, -1.000000000000000000 ) ) ;
#20 = ADVANCED_FACE ( 'NONE', ( #97 ), #254, .F. ) ;
#21 = EDGE_LOOP ( 'NONE', ( #23 ) ) ;
#22 = AXIS2_PLACEMENT_3D ( 'NONE', #244, #34, #19 ) ;
#23 = ORIENTED_EDGE ( 'NONE', *, *, #303, .F. ) ;
#24 = CC_DESIGN_DATE_AND_TIME_ASSIGNMENT ( #262, #158, ( #286 ) ) ;
#25 = CONICAL_SURFACE ( 'NONE', #198, 5.999999999971805664, 0.3028848683740845149 ) ;
#26 = AXIS2_PLACEMENT_3D ( 'NONE', #159, #145, #296 ) ;
#27 = DIRECTION ( 'NONE',  ( 0.000000000000000000, 1.000000000000000000, 0.000000000000000000 ) ) ;
#28 = FACE_BOUND ( 'NONE', #213, .T. ) ;
#29 = ADVANCED_FACE ( 'NONE', ( #121, #116 ), #32, .T. ) ;
#30 = CARTESIAN_POINT ( 'NONE',  ( 0.000000000000000000, 0.000000000000000000, 0.000000000000000000 ) ) ;
#31 = CARTESIAN_POINT ( 'NONE',  ( 0.000000000000000000, 139.9000000000000057, 1.649999999999998579 ) ) ;
#32 = CYLINDRICAL_SURFACE ( 'NONE', #41, 6.000000000000000888 ) ;
#33 = VERTEX_POINT ( 'NONE', #180 ) ;
#34 = DIRECTION ( 'NONE',  ( 0.000000000000000000, -1.000000000000000000, 0.000000000000000000 ) ) ;
#35 = PERSON_AND_ORGANIZATION_ROLE ( 'design_owner' ) ;
#36 = DIRECTION ( 'NONE',  ( 0.000000000000000000, 1.000000000000000000, 0.000000000000000000 ) ) ;
#37 = AXIS2_PLACEMENT_3D ( 'NONE', #225, #14, #196 ) ;
#38 =( BOUNDED_CURVE ( )  B_SPLINE_CURVE ( 3, ( #265, #73, #238, #120 ),
 .UNSPECIFIED., .F., .T. ) 
 B_SPLINE_CURVE_WITH_KNOTS ( ( 4, 4 ),
 ( 0.000000000000000000, 1.000000000000000000 ),
 .UNSPECIFIED. ) 
 CURVE ( )  GEOMETRIC_REPRESENTATION_ITEM ( )  RATIONAL_B_SPLINE_CURVE ( ( 1.000000000000000000, 0.3333333333333333703, 0.3333333333333333703, 1.000000000000000000 ) ) 
 REPRESENTATION_ITEM ( '' )  );
#39 = CARTESIAN_POINT ( 'NONE',  ( 0.000000000000000000, 149.8656410339957574, 4.791987176903720780 ) ) ;
#40 = PRODUCT_DEFINITION_SHAPE ( 'NONE', 'NONE',  #286 ) ;
#41 = AXIS2_PLACEMENT_3D ( 'NONE', #195, #217, #52 ) ;
#42 = CC_DESIGN_SECURITY_CLASSIFICATION ( #102, ( #219 ) ) ;
#43 = CARTESIAN_POINT ( 'NONE',  ( 0.000000000000000000, 0.5000000001018634066, 0.000000000000000000 ) ) ;
#44 = CALENDAR_DATE ( 2024, 12, 6 ) ;
#45 = CARTESIAN_POINT ( 'NONE',  ( 0.000000000000000000, 150.0000000000000000, 4.382404543304999400 ) ) ;
#46 = EDGE_LOOP ( 'NONE', ( #163 ) ) ;
#47 = CC_DESIGN_PERSON_AND_ORGANIZATION_ASSIGNMENT ( #201, #35, ( #230 ) ) ;
#48 = CC_DESIGN_APPROVAL ( #119, ( #219 ) ) ;
#49 = COORDINATED_UNIVERSAL_TIME_OFFSET ( 8, 0, .AHEAD. ) ;
#50 = ADVANCED_FACE ( 'NONE', ( #28, #239 ), #5, .F. ) ;
#51 = EDGE_LOOP ( 'NONE', ( #144 ) ) ;
#52 = DIRECTION ( 'NONE',  ( 0.000000000000000000, 0.000000000000000000, -1.000000000000000000 ) ) ;
#53 = ORIENTED_EDGE ( 'NONE', *, *, #104, .F. ) ;
#54 = CIRCLE ( 'NONE', #307, 6.000000000000000888 ) ;
#55 = ORIENTED_EDGE ( 'NONE', *, *, #222, .F. ) ;
#56 = CARTESIAN_POINT ( 'NONE',  ( 0.000000000000000000, 11.00000000000000000, -2.499999999999998224 ) ) ;
#57 = ORIENTED_EDGE ( 'NONE', *, *, #2, .F. ) ;
#58 = CARTESIAN_POINT ( 'NONE',  ( -9.583974353807441560, 149.8656410339957290, 4.791987176903720780 ) ) ;
#59 = EDGE_CURVE ( 'NONE', #147, #147, #183, .T. ) ;
#60 = CARTESIAN_POINT ( 'NONE',  ( -9.719289064679410117, 149.6491374965129637, 4.859644532339705059 ) ) ;
#61 = DATE_AND_TIME ( #205, #157 ) ;
#62 = FACE_BOUND ( 'NONE', #187, .T. ) ;
#63 = CARTESIAN_POINT ( 'NONE',  ( 9.719289064679410117, 149.6491374965129637, -4.859644532339705059 ) ) ;
#64 = PERSON_AND_ORGANIZATION ( #127, #152 ) ;
#65 = CONICAL_SURFACE ( 'NONE', #160, 2.499999999997726263, 1.029744258685237446 ) ;
#66 = DIRECTION ( 'NONE',  ( 0.000000000000000000, 0.000000000000000000, -1.000000000000000000 ) ) ;
#67 = CIRCLE ( 'NONE', #22, 4.859644532331230948 ) ;
#68 =( BOUNDED_SURFACE ( )  B_SPLINE_SURFACE ( 3, 3, ( 
 ( #208, #13, #226, #182, #179, #177, #9 ),
 ( #224, #270, #122, #108, #278, #249, #175 ),
 ( #274, #221, #251, #272, #293, #58, #39 ),
 ( #81, #276, #63, #150, #110, #60, #253 ) ),
 .UNSPECIFIED., .F., .T., .F. ) 
 B_SPLINE_SURFACE_WITH_KNOTS ( ( 4, 4 ),
 ( 4, 3, 4 ),
 ( 0.000000000000000000, 1.000000000000000000 ),
 ( 0.000000000000000000, 0.5000000000000000000, 1.000000000000000000 ),
 .UNSPECIFIED. ) 
 GEOMETRIC_REPRESENTATION_ITEM ( )  RATIONAL_B_SPLINE_SURFACE ( (
 ( 1.000000000000000000, 0.3333333333333333148, 0.3333333333333333148, 1.000000000000000000, 0.3333333333333333148, 0.3333333333333333148, 1.000000000000000000),
 ( 0.8704604635415936764, 0.2901534878471978551, 0.2901534878471978551, 0.8704604635415936764, 0.2901534878471978551, 0.2901534878471978551, 0.8704604635415936764),
 ( 0.8704604635415936764, 0.2901534878471978551, 0.2901534878471978551, 0.8704604635415936764, 0.2901534878471978551, 0.2901534878471978551, 0.8704604635415936764),
 ( 1.000000000000000000, 0.3333333333333333148, 0.3333333333333333148, 1.000000000000000000, 0.3333333333333333148, 0.3333333333333333148, 1.000000000000000000) ) ) 
 REPRESENTATION_ITEM ( '' )  SURFACE ( )  );
#69 = EDGE_LOOP ( 'NONE', ( #75, #76 ) ) ;
#70 = EDGE_LOOP ( 'NONE', ( #91 ) ) ;
#71 = DESIGN_CONTEXT ( 'detailed design', #138, 'design' ) ;
#72 = EDGE_CURVE ( 'NONE', #83, #83, #54, .T. ) ;
#73 = CARTESIAN_POINT ( 'NONE',  ( -8.764809086609997024, 150.0000000000000000, 4.382404543304999400 ) ) ;
#74 = EDGE_LOOP ( 'NONE', ( #115 ) ) ;
#75 = ORIENTED_EDGE ( 'NONE', *, *, #2, .T. ) ;
#76 = ORIENTED_EDGE ( 'NONE', *, *, #104, .T. ) ;
#77 = LOCAL_TIME ( 10, 5, 48.00000000000000000, #49 ) ;
#78 = FACE_OUTER_BOUND ( 'NONE', #21, .T. ) ;
#79 = DIRECTION ( 'NONE',  ( 0.000000000000000000, 0.000000000000000000, -1.000000000000000000 ) ) ;
#80 = VERTEX_POINT ( 'NONE', #178 ) ;
#81 = CARTESIAN_POINT ( 'NONE',  ( 0.000000000000000000, 149.6491374965129637, 4.859644532339705059 ) ) ;
#82 = EDGE_CURVE ( 'NONE', #292, #292, #227, .T. ) ;
#83 = VERTEX_POINT ( 'NONE', #207 ) ;
#84 = CYLINDRICAL_SURFACE ( 'NONE', #139, 2.499999999999998224 ) ;
#85 = DIRECTION ( 'NONE',  ( 0.000000000000000000, -1.000000000000000000, 0.000000000000000000 ) ) ;
#86 = CARTESIAN_POINT ( 'NONE',  ( 5.483787781522369726E-16, 150.0000000000000000, -4.382404543304999400 ) ) ;
#87 = FACE_OUTER_BOUND ( 'NONE', #309, .T. ) ;
#88 = APPROVAL_DATE_TIME ( #211, #300 ) ;
#89 = CARTESIAN_POINT ( 'NONE',  ( 0.000000000000000000, 146.0000000000718501, 0.000000000000000000 ) ) ;
#90 = DATE_TIME_ROLE ( 'classification_date' ) ;
#91 = ORIENTED_EDGE ( 'NONE', *, *, #72, .T. ) ;
#92 = CIRCLE ( 'NONE', #200, 2.499999999999998224 ) ;
#93 = ORIENTED_EDGE ( 'NONE', *, *, #59, .T. ) ;
#94 = APPROVAL_ROLE ( '' ) ;
#95 = FACE_OUTER_BOUND ( 'NONE', #74, .T. ) ;
#96 = PERSON_AND_ORGANIZATION ( #127, #152 ) ;
#97 = FACE_OUTER_BOUND ( 'NONE', #117, .T. ) ;
#98 = ORIENTED_EDGE ( 'NONE', *, *, #192, .T. ) ;
#99 =( BOUNDED_CURVE ( )  B_SPLINE_CURVE ( 3, ( #190, #266, #283, #206 ),
 .UNSPECIFIED., .F., .F. ) 
 B_SPLINE_CURVE_WITH_KNOTS ( ( 4, 4 ),
 ( 0.000000000000000000, 1.000000000000000000 ),
 .UNSPECIFIED. ) 
 CURVE ( )  GEOMETRIC_REPRESENTATION_ITEM ( )  RATIONAL_B_SPLINE_CURVE ( ( 1.000000000000000000, 0.3333333333333333703, 0.3333333333333333703, 1.000000000000000000 ) ) 
 REPRESENTATION_ITEM ( '' )  );
#100 = PERSON_AND_ORGANIZATION ( #127, #152 ) ;
#101 = DIRECTION ( 'NONE',  ( 0.000000000000000000, 0.000000000000000000, -1.000000000000000000 ) ) ;
#102 = SECURITY_CLASSIFICATION ( '', '', #228 ) ;
#103 = FACE_OUTER_BOUND ( 'NONE', #141, .T. ) ;
#104 = EDGE_CURVE ( 'NONE', #268, #233, #99, .T. ) ;
#105 =( NAMED_UNIT ( * ) SI_UNIT ( $, .STERADIAN. ) SOLID_ANGLE_UNIT ( ) );
#106 = DIRECTION ( 'NONE',  ( 0.000000000000000000, 0.000000000000000000, -1.000000000000000000 ) ) ;
#107 = FACE_OUTER_BOUND ( 'NONE', #1, .T. ) ;
#108 = CARTESIAN_POINT ( 'NONE',  ( 0.000000000000000000, 149.9999999999999716, -4.609233332234357938 ) ) ;
#109 = CARTESIAN_POINT ( 'NONE',  ( 0.000000000000000000, 0.000000000000000000, 0.000000000000000000 ) ) ;
#110 = CARTESIAN_POINT ( 'NONE',  ( -9.719289064679410117, 149.6491374965129637, -4.859644532339705059 ) ) ;
#111 = FACE_OUTER_BOUND ( 'NONE', #46, .T. ) ;
#112 = SHAPE_DEFINITION_REPRESENTATION ( #40, #259 ) ;
#113 = ADVANCED_FACE ( 'NONE', ( #95, #134 ), #84, .F. ) ;
#114 = EDGE_LOOP ( 'NONE', ( #288 ) ) ;
#115 = ORIENTED_EDGE ( 'NONE', *, *, #59, .F. ) ;
#116 = FACE_OUTER_BOUND ( 'NONE', #146, .T. ) ;
#117 = EDGE_LOOP ( 'NONE', ( #98 ) ) ;
#118 = DIRECTION ( 'NONE',  ( 0.000000000000000000, 1.000000000000000000, 0.000000000000000000 ) ) ;
#119 = APPROVAL ( #255, 'Î´Ö¸¶¨' ) ;
#120 = CARTESIAN_POINT ( 'NONE',  ( 5.483787781522369726E-16, 150.0000000000000000, -4.382404543304999400 ) ) ;
#121 = FACE_OUTER_BOUND ( 'NONE', #70, .T. ) ;
#122 = CARTESIAN_POINT ( 'NONE',  ( 9.218466664468715877, 150.0000000000000000, -4.609233332234357938 ) ) ;
#123 = VERTEX_POINT ( 'NONE', #128 ) ;
#124 = CIRCLE ( 'NONE', #37, 1.649999999999998579 ) ;
#125 = DIRECTION ( 'NONE',  ( -0.000000000000000000, -1.000000000000000000, -0.000000000000000000 ) ) ;
#126 = CARTESIAN_POINT ( 'NONE',  ( 0.000000000000000000, 11.00000000002410161, 0.000000000000000000 ) ) ;
#127 = PERSON ( 'Î´Ö¸¶¨', 'Î´Ö¸¶¨', 'Î´Ö¸¶¨', ('Î´Ö¸¶¨'), ('Î´Ö¸¶¨'), ('Î´Ö¸¶¨') ) ;
#128 = CARTESIAN_POINT ( 'NONE',  ( 0.000000000000000000, 150.0000000000000000, 1.649999999999998579 ) ) ;
#129 = CARTESIAN_POINT ( 'NONE',  ( 0.000000000000000000, 146.0000000000000000, 0.000000000000000000 ) ) ;
#130 = CLOSED_SHELL ( 'NONE', ( #161, #113, #50, #204, #29, #20, #258, #246, #143, #137 ) ) ;
#131 = APPROVAL_PERSON_ORGANIZATION ( #100, #216, #273 ) ;
#132 = CALENDAR_DATE ( 2024, 12, 6 ) ;
#133 = CC_DESIGN_PERSON_AND_ORGANIZATION_ASSIGNMENT ( #18, #252, ( #102 ) ) ;
#134 = FACE_OUTER_BOUND ( 'NONE', #235, .T. ) ;
#135 = PERSON_AND_ORGANIZATION_ROLE ( 'creator' ) ;
#136 = FACE_BOUND ( 'NONE', #114, .T. ) ;
#137 = ADVANCED_FACE ( 'NONE', ( #111, #62 ), #25, .T. ) ;
#138 = APPLICATION_CONTEXT ( 'configuration controlled 3d designs of mechanical parts and assemblies' ) ;
#139 = AXIS2_PLACEMENT_3D ( 'NONE', #297, #125, #106 ) ;
#140 = LOCAL_TIME ( 10, 5, 48.00000000000000000, #237 ) ;
#141 = EDGE_LOOP ( 'NONE', ( #93 ) ) ;
#142 = CARTESIAN_POINT ( 'NONE',  ( 0.000000000000000000, 139.8999999998977728, 0.000000000000000000 ) ) ;
#143 = ADVANCED_FACE ( 'NONE', ( #295, #229 ), #68, .T. ) ;
#144 = ORIENTED_EDGE ( 'NONE', *, *, #82, .T. ) ;
#145 = DIRECTION ( 'NONE',  ( 0.000000000000000000, 1.000000000000000000, 0.000000000000000000 ) ) ;
#146 = EDGE_LOOP ( 'NONE', ( #164 ) ) ;
#147 = VERTEX_POINT ( 'NONE', #56 ) ;
#148 = CARTESIAN_POINT ( 'NONE',  ( 0.000000000000000000, 0.000000000000000000, 0.000000000000000000 ) ) ;
#149 = CYLINDRICAL_SURFACE ( 'NONE', #10, 1.649999999999998579 ) ;
#150 = CARTESIAN_POINT ( 'NONE',  ( 0.000000000000000000, 149.6491374965129637, -4.859644532339705059 ) ) ;
#151 = CARTESIAN_POINT ( 'NONE',  ( 0.000000000000000000, 150.0000000000000000, 0.000000000000000000 ) ) ;
#152 = ORGANIZATION ( 'Î´Ö¸¶¨', 'Î´Ö¸¶¨', '' ) ;
#153 = DIRECTION ( 'NONE',  ( 0.000000000000000000, 0.000000000000000000, -1.000000000000000000 ) ) ;
#154 = APPROVAL_DATE_TIME ( #61, #216 ) ;
#155 = FACE_BOUND ( 'NONE', #51, .T. ) ;
#156 = AXIS2_PLACEMENT_3D ( 'NONE', #148, #27, #214 ) ;
#157 = LOCAL_TIME ( 10, 5, 48.00000000000000000, #12 ) ;
#158 = DATE_TIME_ROLE ( 'creation_date' ) ;
#159 = CARTESIAN_POINT ( 'NONE',  ( 0.000000000000000000, 150.0000000000000000, 0.000000000000000000 ) ) ;
#160 = AXIS2_PLACEMENT_3D ( 'NONE', #126, #247, #153 ) ;
#161 = ADVANCED_FACE ( 'NONE', ( #103 ), #65, .F. ) ;
#162 = CALENDAR_DATE ( 2024, 12, 6 ) ;
#163 = ORIENTED_EDGE ( 'NONE', *, *, #168, .F. ) ;
#164 = ORIENTED_EDGE ( 'NONE', *, *, #168, .T. ) ;
#165 = COORDINATED_UNIVERSAL_TIME_OFFSET ( 8, 0, .AHEAD. ) ;
#166 = EDGE_LOOP ( 'NONE', ( #3 ) ) ;
#167 = AXIS2_PLACEMENT_3D ( 'NONE', #43, #36, #202 ) ;
#168 = EDGE_CURVE ( 'NONE', #33, #33, #264, .T. ) ;
#169 = ORIENTED_EDGE ( 'NONE', *, *, #222, .T. ) ;
#170 = CARTESIAN_POINT ( 'NONE',  ( 0.000000000000000000, 11.00000000000000000, 0.000000000000000000 ) ) ;
#171 = AXIS2_PLACEMENT_3D ( 'NONE', #170, #284, #101 ) ;
#172 = LOCAL_TIME ( 10, 5, 48.00000000000000000, #165 ) ;
#173 = ORIENTED_EDGE ( 'NONE', *, *, #72, .F. ) ;
#174 = CARTESIAN_POINT ( 'NONE',  ( 0.000000000000000000, 149.6491374965103205, -4.859644532331230948 ) ) ;
#175 = CARTESIAN_POINT ( 'NONE',  ( 0.000000000000000000, 149.9999999999999716, 4.609233332234357938 ) ) ;
#176 = CARTESIAN_POINT ( 'NONE',  ( 0.000000000000000000, 0.000000000000000000, 5.500000000040472514 ) ) ;
#177 = CARTESIAN_POINT ( 'NONE',  ( -8.764809086609998801, 150.0000000000000000, 4.382404543304999400 ) ) ;
#178 = CARTESIAN_POINT ( 'NONE',  ( 0.000000000000000000, 1.040949779275260987E-16, -2.499999999999998224 ) ) ;
#179 = CARTESIAN_POINT ( 'NONE',  ( -8.764809086609998801, 150.0000000000000000, -4.382404543304999400 ) ) ;
#180 = CARTESIAN_POINT ( 'NONE',  ( 0.000000000000000000, 146.0000000000000000, -6.000000000000000888 ) ) ;
#181 = DIRECTION ( 'NONE',  ( -0.000000000000000000, -1.000000000000000000, -0.000000000000000000 ) ) ;
#182 = CARTESIAN_POINT ( 'NONE',  ( 0.000000000000000000, 150.0000000000000000, -4.382404543304999400 ) ) ;
#183 = CIRCLE ( 'NONE', #171, 2.499999999999998224 ) ;
#184 = APPROVAL_ROLE ( '' ) ;
#185 = CONICAL_SURFACE ( 'NONE', #167, 6.000000000085492502, 0.7853981633406048601 ) ;
#186 = DATE_AND_TIME ( #132, #140 ) ;
#187 = EDGE_LOOP ( 'NONE', ( #169 ) ) ;
#188 = PRODUCT_RELATED_PRODUCT_CATEGORY ( 'detail', '', ( #230 ) ) ;
#189 = COORDINATED_UNIVERSAL_TIME_OFFSET ( 8, 0, .AHEAD. ) ;
#190 = CARTESIAN_POINT ( 'NONE',  ( 5.483787781522369726E-16, 150.0000000000000000, -4.382404543304999400 ) ) ;
#191 = PERSON_AND_ORGANIZATION_ROLE ( 'creator' ) ;
#192 = EDGE_CURVE ( 'NONE', #243, #243, #305, .T. ) ;
#193 = DIRECTION ( 'NONE',  ( -0.000000000000000000, 1.000000000000000000, 0.000000000000000000 ) ) ;
#194 = ORIENTED_EDGE ( 'NONE', *, *, #212, .F. ) ;
#195 = CARTESIAN_POINT ( 'NONE',  ( 0.000000000000000000, 25.00000000000000000, 0.000000000000000000 ) ) ;
#196 = DIRECTION ( 'NONE',  ( 0.000000000000000000, 0.000000000000000000, 1.000000000000000000 ) ) ;
#197 = CARTESIAN_POINT ( 'NONE',  ( 0.000000000000000000, 0.5000000000000004441, 0.000000000000000000 ) ) ;
#198 = AXIS2_PLACEMENT_3D ( 'NONE', #89, #85, #203 ) ;
#199 = LOCAL_TIME ( 10, 5, 48.00000000000000000, #189 ) ;
#200 = AXIS2_PLACEMENT_3D ( 'NONE', #17, #301, #66 ) ;
#201 = PERSON_AND_ORGANIZATION ( #127, #152 ) ;
#202 = DIRECTION ( 'NONE',  ( 0.000000000000000000, 0.000000000000000000, 1.000000000000000000 ) ) ;
#203 = DIRECTION ( 'NONE',  ( 0.000000000000000000, 0.000000000000000000, -1.000000000000000000 ) ) ;
#204 = ADVANCED_FACE ( 'NONE', ( #87, #155 ), #185, .T. ) ;
#205 = CALENDAR_DATE ( 2024, 12, 6 ) ;
#206 = CARTESIAN_POINT ( 'NONE',  ( 0.000000000000000000, 150.0000000000000000, 4.382404543304999400 ) ) ;
#207 = CARTESIAN_POINT ( 'NONE',  ( 0.000000000000000000, 0.5000000000000004441, -6.000000000000000888 ) ) ;
#208 = CARTESIAN_POINT ( 'NONE',  ( 0.000000000000000000, 150.0000000000000000, 4.382404543304999400 ) ) ;
#209 = DIRECTION ( 'NONE',  ( 0.000000000000000000, 1.000000000000000000, 0.000000000000000000 ) ) ;
#210 = DATE_AND_TIME ( #44, #199 ) ;
#211 = DATE_AND_TIME ( #162, #77 ) ;
#212 = EDGE_CURVE ( 'NONE', #80, #80, #92, .T. ) ;
#213 = EDGE_LOOP ( 'NONE', ( #194 ) ) ;
#214 = DIRECTION ( 'NONE',  ( 0.000000000000000000, 0.000000000000000000, 1.000000000000000000 ) ) ;
#215 = DIRECTION ( 'NONE',  ( 0.000000000000000000, 0.000000000000000000, 1.000000000000000000 ) ) ;
#216 = APPROVAL ( #223, 'Î´Ö¸¶¨' ) ;
#217 = DIRECTION ( 'NONE',  ( -0.000000000000000000, -1.000000000000000000, -0.000000000000000000 ) ) ;
#218 = DIRECTION ( 'NONE',  ( 1.000000000000000000, 0.000000000000000000, 0.000000000000000000 ) ) ;
#219 = PRODUCT_DEFINITION_FORMATION_WITH_SPECIFIED_SOURCE ( 'ÈÎºÎ', '', #230, .NOT_KNOWN. ) ;
#220 =( NAMED_UNIT ( * ) PLANE_ANGLE_UNIT ( ) SI_UNIT ( $, .RADIAN. ) );
#221 = CARTESIAN_POINT ( 'NONE',  ( 9.583974353807441560, 149.8656410339957290, 4.791987176903720780 ) ) ;
#222 = EDGE_CURVE ( 'NONE', #271, #271, #67, .T. ) ;
#223 = APPROVAL_STATUS ( 'not_yet_approved' ) ;
#224 = CARTESIAN_POINT ( 'NONE',  ( 0.000000000000000000, 149.9999999999999716, 4.609233332234357938 ) ) ;
#225 = CARTESIAN_POINT ( 'NONE',  ( 0.000000000000000000, 150.0000000000000000, 0.000000000000000000 ) ) ;
#226 = CARTESIAN_POINT ( 'NONE',  ( 8.764809086609998801, 150.0000000000000000, -4.382404543304999400 ) ) ;
#227 = CIRCLE ( 'NONE', #156, 5.500000000040472514 ) ;
#228 = SECURITY_CLASSIFICATION_LEVEL ( 'unclassified' ) ;
#229 = FACE_OUTER_BOUND ( 'NONE', #282, .T. ) ;
#230 = PRODUCT ( '524213', '524213', '', ( #294 ) ) ;
#231 = PERSON_AND_ORGANIZATION ( #127, #152 ) ;
#232 = FACE_OUTER_BOUND ( 'NONE', #287, .T. ) ;
#233 = VERTEX_POINT ( 'NONE', #45 ) ;
#234 = CC_DESIGN_DATE_AND_TIME_ASSIGNMENT ( #186, #90, ( #102 ) ) ;
#235 = EDGE_LOOP ( 'NONE', ( #242 ) ) ;
#236 = AXIS2_PLACEMENT_3D ( 'NONE', #129, #181, #16 ) ;
#237 = COORDINATED_UNIVERSAL_TIME_OFFSET ( 8, 0, .AHEAD. ) ;
#238 = CARTESIAN_POINT ( 'NONE',  ( -8.764809086609997024, 150.0000000000000000, -4.382404543305000288 ) ) ;
#239 = FACE_OUTER_BOUND ( 'NONE', #166, .T. ) ;
#240 = CC_DESIGN_PERSON_AND_ORGANIZATION_ASSIGNMENT ( #302, #135, ( #219 ) ) ;
#241 = DIRECTION ( 'NONE',  ( 0.000000000000000000, 1.000000000000000000, 0.000000000000000000 ) ) ;
#242 = ORIENTED_EDGE ( 'NONE', *, *, #212, .T. ) ;
#243 = VERTEX_POINT ( 'NONE', #31 ) ;
#244 = CARTESIAN_POINT ( 'NONE',  ( 0.000000000000000000, 149.6491374965103205, 0.000000000000000000 ) ) ;
#245 =( LENGTH_UNIT ( ) NAMED_UNIT ( * ) SI_UNIT ( .MILLI., .METRE. ) );
#246 = ADVANCED_FACE ( 'NONE', ( #136, #232 ), #256, .T. ) ;
#247 = DIRECTION ( 'NONE',  ( 0.000000000000000000, -1.000000000000000000, 0.000000000000000000 ) ) ;
#248 =( GEOMETRIC_REPRESENTATION_CONTEXT ( 3 ) GLOBAL_UNCERTAINTY_ASSIGNED_CONTEXT ( ( #260 ) ) GLOBAL_UNIT_ASSIGNED_CONTEXT ( ( #245, #220, #105 ) ) REPRESENTATION_CONTEXT ( 'NONE', 'WORKASPACE' ) );
#249 = CARTESIAN_POINT ( 'NONE',  ( -9.218466664468715877, 150.0000000000000000, 4.609233332234357938 ) ) ;
#250 = PERSON_AND_ORGANIZATION ( #127, #152 ) ;
#251 = CARTESIAN_POINT ( 'NONE',  ( 9.583974353807441560, 149.8656410339957290, -4.791987176903720780 ) ) ;
#252 = PERSON_AND_ORGANIZATION_ROLE ( 'classification_officer' ) ;
#253 = CARTESIAN_POINT ( 'NONE',  ( 0.000000000000000000, 149.6491374965129637, 4.859644532339705059 ) ) ;
#254 = CONICAL_SURFACE ( 'NONE', #289, 1.649999999870033207, 1.029744258665856727 ) ;
#255 = APPROVAL_STATUS ( 'not_yet_approved' ) ;
#256 = PLANE ( 'NONE',  #26 ) ;
#257 = PERSON_AND_ORGANIZATION_ROLE ( 'design_supplier' ) ;
#258 = ADVANCED_FACE ( 'NONE', ( #78, #107 ), #149, .F. ) ;
#259 = ADVANCED_BREP_SHAPE_REPRESENTATION ( '524213', ( #306, #285 ), #248 ) ;
#260 = UNCERTAINTY_MEASURE_WITH_UNIT (LENGTH_MEASURE( 1.000000000000000082E-05 ), #245, 'distance_accuracy_value', 'NONE');
#261 = ORIENTED_EDGE ( 'NONE', *, *, #192, .F. ) ;
#262 = DATE_AND_TIME ( #277, #172 ) ;
#263 = DIRECTION ( 'NONE',  ( 0.000000000000000000, 1.000000000000000000, 0.000000000000000000 ) ) ;
#264 = CIRCLE ( 'NONE', #236, 6.000000000000000888 ) ;
#265 = CARTESIAN_POINT ( 'NONE',  ( 0.000000000000000000, 150.0000000000000000, 4.382404543304999400 ) ) ;
#266 = CARTESIAN_POINT ( 'NONE',  ( 8.764809086609997024, 150.0000000000000000, -4.382404543304998512 ) ) ;
#267 = CC_DESIGN_PERSON_AND_ORGANIZATION_ASSIGNMENT ( #231, #257, ( #219 ) ) ;
#268 = VERTEX_POINT ( 'NONE', #86 ) ;
#269 = DIRECTION ( 'NONE',  ( 0.000000000000000000, 0.000000000000000000, 1.000000000000000000 ) ) ;
#270 = CARTESIAN_POINT ( 'NONE',  ( 9.218466664468715877, 150.0000000000000000, 4.609233332234357938 ) ) ;
#271 = VERTEX_POINT ( 'NONE', #174 ) ;
#272 = CARTESIAN_POINT ( 'NONE',  ( 0.000000000000000000, 149.8656410339957574, -4.791987176903720780 ) ) ;
#273 = APPROVAL_ROLE ( '' ) ;
#274 = CARTESIAN_POINT ( 'NONE',  ( 0.000000000000000000, 149.8656410339957574, 4.791987176903720780 ) ) ;
#275 = APPLICATION_CONTEXT ( 'configuration controlled 3d designs of mechanical parts and assemblies' ) ;
#276 = CARTESIAN_POINT ( 'NONE',  ( 9.719289064679410117, 149.6491374965129637, 4.859644532339705059 ) ) ;
#277 = CALENDAR_DATE ( 2024, 12, 6 ) ;
#278 = CARTESIAN_POINT ( 'NONE',  ( -9.218466664468715877, 150.0000000000000000, -4.609233332234357938 ) ) ;
#279 = CC_DESIGN_APPROVAL ( #216, ( #286 ) ) ;
#280 = APPROVAL_STATUS ( 'not_yet_approved' ) ;
#281 = AXIS2_PLACEMENT_3D ( 'NONE', #299, #209, #11 ) ;
#282 = EDGE_LOOP ( 'NONE', ( #55 ) ) ;
#283 = CARTESIAN_POINT ( 'NONE',  ( 8.764809086609997024, 150.0000000000000000, 4.382404543304999400 ) ) ;
#284 = DIRECTION ( 'NONE',  ( -0.000000000000000000, -1.000000000000000000, -0.000000000000000000 ) ) ;
#285 = AXIS2_PLACEMENT_3D ( 'NONE', #109, #298, #218 ) ;
#286 = PRODUCT_DEFINITION ( 'Î´Öª', '', #219, #71 ) ;
#287 = EDGE_LOOP ( 'NONE', ( #53, #57 ) ) ;
#288 = ORIENTED_EDGE ( 'NONE', *, *, #303, .T. ) ;
#289 = AXIS2_PLACEMENT_3D ( 'NONE', #142, #193, #215 ) ;
#290 = APPROVAL_PERSON_ORGANIZATION ( #96, #300, #184 ) ;
#291 = DIRECTION ( 'NONE',  ( 0.000000000000000000, -0.000000000000000000, 1.000000000000000000 ) ) ;
#292 = VERTEX_POINT ( 'NONE', #176 ) ;
#293 = CARTESIAN_POINT ( 'NONE',  ( -9.583974353807441560, 149.8656410339957290, -4.791987176903720780 ) ) ;
#294 = MECHANICAL_CONTEXT ( 'NONE', #275, 'mechanical' ) ;
#295 = FACE_OUTER_BOUND ( 'NONE', #69, .T. ) ;
#296 = DIRECTION ( 'NONE',  ( 0.000000000000000000, -0.000000000000000000, 1.000000000000000000 ) ) ;
#297 = CARTESIAN_POINT ( 'NONE',  ( 0.000000000000000000, 0.000000000000000000, 0.000000000000000000 ) ) ;
#298 = DIRECTION ( 'NONE',  ( 0.000000000000000000, 0.000000000000000000, 1.000000000000000000 ) ) ;
#299 = CARTESIAN_POINT ( 'NONE',  ( 0.000000000000000000, 139.9000000000000057, 0.000000000000000000 ) ) ;
#300 = APPROVAL ( #280, 'Î´Ö¸¶¨' ) ;
#301 = DIRECTION ( 'NONE',  ( -0.000000000000000000, -1.000000000000000000, -0.000000000000000000 ) ) ;
#302 = PERSON_AND_ORGANIZATION ( #127, #152 ) ;
#303 = EDGE_CURVE ( 'NONE', #123, #123, #124, .T. ) ;
#304 = APPROVAL_DATE_TIME ( #210, #119 ) ;
#305 = CIRCLE ( 'NONE', #281, 1.649999999999998579 ) ;
#306 = MANIFOLD_SOLID_BREP ( '×éºÏ1', #130 ) ;
#307 = AXIS2_PLACEMENT_3D ( 'NONE', #197, #263, #79 ) ;
#308 = CC_DESIGN_APPROVAL ( #300, ( #102 ) ) ;
#309 = EDGE_LOOP ( 'NONE', ( #173 ) ) ;
ENDSEC;
END-ISO-10303-21;
