ISO-10303-21;
HEADER;
FILE_DESCRIPTION (( 'STEP AP203' ),
    '1' );
FILE_NAME ('524211.STEP',
    '2024-06-12T02:04:22',
    ( 'Windows User' ),
    ( 'P R C' ),
    'SwSTEP 2.0',
    'SolidWorks 2020',
    '' );
FILE_SCHEMA (( 'CONFIG_CONTROL_DESIGN' ));
ENDSEC;

DATA;
#1 = CARTESIAN_POINT ( 'NONE',  ( 9.218466664468715877, 99.99999999999998579, -4.609233332234357938 ) ) ;
#2 = ADVANCED_FACE ( 'NONE', ( #209, #81 ), #147, .F. ) ;
#3 = CARTESIAN_POINT ( 'NONE',  ( 0.000000000000000000, 100.0000000000000000, 4.382404543304999400 ) ) ;
#4 = DIRECTION ( 'NONE',  ( 0.000000000000000000, 0.000000000000000000, -1.000000000000000000 ) ) ;
#5 = CARTESIAN_POINT ( 'NONE',  ( 0.000000000000000000, 96.00000000007185008, 0.000000000000000000 ) ) ;
#6 = CIRCLE ( 'NONE', #179, 2.499999999999998224 ) ;
#7 = MANIFOLD_SOLID_BREP ( '×éºÏ1', #184 ) ;
#8 = CARTESIAN_POINT ( 'NONE',  ( -9.719289064679410117, 99.64913749651296371, -4.859644532339705059 ) ) ;
#9 = DIRECTION ( 'NONE',  ( 0.000000000000000000, -0.000000000000000000, 1.000000000000000000 ) ) ;
#10 = AXIS2_PLACEMENT_3D ( 'NONE', #269, #156, #299 ) ;
#11 = PLANE ( 'NONE',  #249 ) ;
#12 = LOCAL_TIME ( 10, 4, 22.00000000000000000, #231 ) ;
#13 = APPROVAL_STATUS ( 'not_yet_approved' ) ;
#14 = EDGE_CURVE ( 'NONE', #176, #176, #58, .T. ) ;
#15 = DATE_AND_TIME ( #277, #92 ) ;
#16 = VERTEX_POINT ( 'NONE', #19 ) ;
#17 = CARTESIAN_POINT ( 'NONE',  ( 8.764809086609998801, 100.0000000000000142, 4.382404543304999400 ) ) ;
#18 = PERSON_AND_ORGANIZATION ( #126, #297 ) ;
#19 = CARTESIAN_POINT ( 'NONE',  ( 5.483787781522369726E-16, 100.0000000000000000, -4.382404543304999400 ) ) ;
#20 = APPROVAL_DATE_TIME ( #119, #223 ) ;
#21 = ORIENTED_EDGE ( 'NONE', *, *, #210, .F. ) ;
#22 = EDGE_CURVE ( 'NONE', #40, #40, #194, .T. ) ;
#23 = FACE_OUTER_BOUND ( 'NONE', #118, .T. ) ;
#24 = PERSON_AND_ORGANIZATION_ROLE ( 'creator' ) ;
#25 = CARTESIAN_POINT ( 'NONE',  ( 0.000000000000000000, 100.0000000000000000, 4.609233332234357938 ) ) ;
#26 = AXIS2_PLACEMENT_3D ( 'NONE', #32, #168, #153 ) ;
#27 = CARTESIAN_POINT ( 'NONE',  ( 0.000000000000000000, 99.64913749651296371, -4.859644532339705059 ) ) ;
#28 = CC_DESIGN_PERSON_AND_ORGANIZATION_ASSIGNMENT ( #204, #161, ( #189 ) ) ;
#29 = SECURITY_CLASSIFICATION ( '', '', #164 ) ;
#30 = PLANE ( 'NONE',  #136 ) ;
#31 = DIRECTION ( 'NONE',  ( 0.000000000000000000, -1.000000000000000000, 0.000000000000000000 ) ) ;
#32 = CARTESIAN_POINT ( 'NONE',  ( 0.000000000000000000, 0.5000000000000004441, 0.000000000000000000 ) ) ;
#33 = CARTESIAN_POINT ( 'NONE',  ( 0.000000000000000000, 99.64913749651032049, 0.000000000000000000 ) ) ;
#34 = PRODUCT ( '524211', '524211', '', ( #219 ) ) ;
#35 = DIRECTION ( 'NONE',  ( 0.000000000000000000, -1.000000000000000000, 0.000000000000000000 ) ) ;
#36 = APPLICATION_CONTEXT ( 'configuration controlled 3d designs of mechanical parts and assemblies' ) ;
#37 = ORIENTED_EDGE ( 'NONE', *, *, #274, .T. ) ;
#38 = CARTESIAN_POINT ( 'NONE',  ( 0.000000000000000000, 11.00000000002410161, 0.000000000000000000 ) ) ;
#39 = CONICAL_SURFACE ( 'NONE', #203, 2.499999999997726263, 1.029744258685237446 ) ;
#40 = VERTEX_POINT ( 'NONE', #241 ) ;
#41 = CC_DESIGN_DATE_AND_TIME_ASSIGNMENT ( #229, #76, ( #302 ) ) ;
#42 = APPLICATION_PROTOCOL_DEFINITION ( 'international standard', 'config_control_design', 1994, #36 ) ;
#43 = AXIS2_PLACEMENT_3D ( 'NONE', #233, #100, #143 ) ;
#44 = FACE_OUTER_BOUND ( 'NONE', #300, .T. ) ;
#45 = CC_DESIGN_APPROVAL ( #223, ( #29 ) ) ;
#46 = CARTESIAN_POINT ( 'NONE',  ( -8.764809086609998801, 100.0000000000000142, -4.382404543304999400 ) ) ;
#47 = SHAPE_DEFINITION_REPRESENTATION ( #239, #287 ) ;
#48 = CARTESIAN_POINT ( 'NONE',  ( 0.000000000000000000, 99.86564103399575743, 4.791987176903720780 ) ) ;
#49 = APPROVAL_DATE_TIME ( #227, #242 ) ;
#50 = ADVANCED_FACE ( 'NONE', ( #23, #281 ), #121, .T. ) ;
#51 = ORIENTED_EDGE ( 'NONE', *, *, #66, .F. ) ;
#52 = CARTESIAN_POINT ( 'NONE',  ( 0.000000000000000000, 100.0000000000000000, 4.609233332234357938 ) ) ;
#53 = ORIENTED_EDGE ( 'NONE', *, *, #99, .T. ) ;
#54 = FACE_BOUND ( 'NONE', #165, .T. ) ;
#55 = ADVANCED_FACE ( 'NONE', ( #291, #237 ), #263, .T. ) ;
#56 = AXIS2_PLACEMENT_3D ( 'NONE', #33, #31, #266 ) ;
#57 = CARTESIAN_POINT ( 'NONE',  ( 8.764809086609997024, 100.0000000000000000, -4.382404543304998512 ) ) ;
#58 = CIRCLE ( 'NONE', #225, 1.649999999999998579 ) ;
#59 = FACE_OUTER_BOUND ( 'NONE', #162, .T. ) ;
#60 = FACE_BOUND ( 'NONE', #186, .T. ) ;
#61 = CC_DESIGN_PERSON_AND_ORGANIZATION_ASSIGNMENT ( #155, #243, ( #34 ) ) ;
#62 = DIRECTION ( 'NONE',  ( 0.000000000000000000, 0.000000000000000000, -1.000000000000000000 ) ) ;
#63 = DIRECTION ( 'NONE',  ( 0.000000000000000000, 0.000000000000000000, 1.000000000000000000 ) ) ;
#64 = APPROVAL_PERSON_ORGANIZATION ( #73, #223, #79 ) ;
#65 = EDGE_LOOP ( 'NONE', ( #278 ) ) ;
#66 = EDGE_CURVE ( 'NONE', #174, #16, #132, .T. ) ;
#67 = VERTEX_POINT ( 'NONE', #70 ) ;
#68 = ORIENTED_EDGE ( 'NONE', *, *, #22, .F. ) ;
#69 = DIRECTION ( 'NONE',  ( 0.000000000000000000, 0.000000000000000000, 1.000000000000000000 ) ) ;
#70 = CARTESIAN_POINT ( 'NONE',  ( 0.000000000000000000, 99.64913749651032049, -4.859644532331230948 ) ) ;
#71 = AXIS2_PLACEMENT_3D ( 'NONE', #253, #303, #122 ) ;
#72 = CALENDAR_DATE ( 2024, 12, 6 ) ;
#73 = PERSON_AND_ORGANIZATION ( #126, #297 ) ;
#74 = ORIENTED_EDGE ( 'NONE', *, *, #166, .F. ) ;
#75 = CC_DESIGN_APPROVAL ( #242, ( #302 ) ) ;
#76 = DATE_TIME_ROLE ( 'creation_date' ) ;
#77 = EDGE_LOOP ( 'NONE', ( #21 ) ) ;
#78 = COORDINATED_UNIVERSAL_TIME_OFFSET ( 8, 0, .AHEAD. ) ;
#79 = APPROVAL_ROLE ( '' ) ;
#80 = EDGE_LOOP ( 'NONE', ( #74 ) ) ;
#81 = FACE_OUTER_BOUND ( 'NONE', #65, .T. ) ;
#82 = DIRECTION ( 'NONE',  ( 0.000000000000000000, 0.000000000000000000, 1.000000000000000000 ) ) ;
#83 = CARTESIAN_POINT ( 'NONE',  ( 0.000000000000000000, 99.64913749651296371, 4.859644532339705059 ) ) ;
#84 = CONICAL_SURFACE ( 'NONE', #294, 6.000000000085492502, 0.7853981633406048601 ) ;
#85 = CONICAL_SURFACE ( 'NONE', #247, 1.649999999870033207, 1.029744258665856727 ) ;
#86 = DIRECTION ( 'NONE',  ( -0.000000000000000000, -1.000000000000000000, -0.000000000000000000 ) ) ;
#87 = PRODUCT_RELATED_PRODUCT_CATEGORY ( 'detail', '', ( #34 ) ) ;
#88 = FACE_OUTER_BOUND ( 'NONE', #116, .T. ) ;
#89 = CARTESIAN_POINT ( 'NONE',  ( 0.000000000000000000, 95.99999999999997158, -6.000000000000000888 ) ) ;
#90 = AXIS2_PLACEMENT_3D ( 'NONE', #110, #137, #69 ) ;
#91 = ORIENTED_EDGE ( 'NONE', *, *, #66, .T. ) ;
#92 = LOCAL_TIME ( 10, 4, 22.00000000000000000, #117 ) ;
#93 = APPLICATION_CONTEXT ( 'configuration controlled 3d designs of mechanical parts and assemblies' ) ;
#94 = CARTESIAN_POINT ( 'NONE',  ( 0.000000000000000000, 0.000000000000000000, 0.000000000000000000 ) ) ;
#95 = DIRECTION ( 'NONE',  ( 0.000000000000000000, 0.000000000000000000, -1.000000000000000000 ) ) ;
#96 = EDGE_LOOP ( 'NONE', ( #159 ) ) ;
#97 = CARTESIAN_POINT ( 'NONE',  ( 0.000000000000000000, 100.0000000000000000, 4.382404543304999400 ) ) ;
#98 = PERSON_AND_ORGANIZATION ( #126, #297 ) ;
#99 = EDGE_CURVE ( 'NONE', #135, #135, #169, .T. ) ;
#100 = DIRECTION ( 'NONE',  ( -0.000000000000000000, -1.000000000000000000, -0.000000000000000000 ) ) ;
#101 = APPROVAL_STATUS ( 'not_yet_approved' ) ;
#102 = EDGE_LOOP ( 'NONE', ( #272 ) ) ;
#103 = LOCAL_TIME ( 10, 4, 22.00000000000000000, #305 ) ;
#104 = CARTESIAN_POINT ( 'NONE',  ( 8.764809086609997024, 100.0000000000000000, 4.382404543304999400 ) ) ;
#105 = CARTESIAN_POINT ( 'NONE',  ( 0.000000000000000000, 89.89999999989777280, 0.000000000000000000 ) ) ;
#106 = FACE_OUTER_BOUND ( 'NONE', #77, .T. ) ;
#107 = DIRECTION ( 'NONE',  ( 0.000000000000000000, 1.000000000000000000, 0.000000000000000000 ) ) ;
#108 = CARTESIAN_POINT ( 'NONE',  ( 0.000000000000000000, 0.000000000000000000, 5.500000000040472514 ) ) ;
#109 = EDGE_LOOP ( 'NONE', ( #257 ) ) ;
#110 = CARTESIAN_POINT ( 'NONE',  ( 0.000000000000000000, 100.0000000000000000, 0.000000000000000000 ) ) ;
#111 = CIRCLE ( 'NONE', #90, 1.649999999999998579 ) ;
#112 = VERTEX_POINT ( 'NONE', #108 ) ;
#113 = LOCAL_TIME ( 10, 4, 22.00000000000000000, #185 ) ;
#114 = FACE_OUTER_BOUND ( 'NONE', #109, .T. ) ;
#115 = ADVANCED_FACE ( 'NONE', ( #59 ), #85, .F. ) ;
#116 = EDGE_LOOP ( 'NONE', ( #178, #51 ) ) ;
#117 = COORDINATED_UNIVERSAL_TIME_OFFSET ( 8, 0, .AHEAD. ) ;
#118 = EDGE_LOOP ( 'NONE', ( #91, #198 ) ) ;
#119 = DATE_AND_TIME ( #308, #103 ) ;
#120 = ADVANCED_FACE ( 'NONE', ( #193, #170 ), #218, .T. ) ;
#121 =( BOUNDED_SURFACE ( )  B_SPLINE_SURFACE ( 3, 3, ( 
 ( #97, #17, #124, #259, #46, #208, #258 ),
 ( #52, #163, #1, #202, #182, #255, #25 ),
 ( #48, #144, #280, #188, #307, #283, #127 ),
 ( #83, #128, #289, #27, #8, #190, #262 ) ),
 .UNSPECIFIED., .F., .T., .F. ) 
 B_SPLINE_SURFACE_WITH_KNOTS ( ( 4, 4 ),
 ( 4, 3, 4 ),
 ( 0.000000000000000000, 1.000000000000000000 ),
 ( 0.000000000000000000, 0.5000000000000000000, 1.000000000000000000 ),
 .UNSPECIFIED. ) 
 GEOMETRIC_REPRESENTATION_ITEM ( )  RATIONAL_B_SPLINE_SURFACE ( (
 ( 1.000000000000000000, 0.3333333333333333148, 0.3333333333333333148, 1.000000000000000000, 0.3333333333333333148, 0.3333333333333333148, 1.000000000000000000),
 ( 0.8704604635415936764, 0.2901534878471978551, 0.2901534878471978551, 0.8704604635415936764, 0.2901534878471978551, 0.2901534878471978551, 0.8704604635415936764),
 ( 0.8704604635415936764, 0.2901534878471978551, 0.2901534878471978551, 0.8704604635415936764, 0.2901534878471978551, 0.2901534878471978551, 0.8704604635415936764),
 ( 1.000000000000000000, 0.3333333333333333148, 0.3333333333333333148, 1.000000000000000000, 0.3333333333333333148, 0.3333333333333333148, 1.000000000000000000) ) ) 
 REPRESENTATION_ITEM ( '' )  SURFACE ( )  );
#122 = DIRECTION ( 'NONE',  ( 0.000000000000000000, 0.000000000000000000, -1.000000000000000000 ) ) ;
#123 = PERSON_AND_ORGANIZATION_ROLE ( 'design_supplier' ) ;
#124 = CARTESIAN_POINT ( 'NONE',  ( 8.764809086609998801, 100.0000000000000142, -4.382404543304999400 ) ) ;
#125 = APPROVAL_STATUS ( 'not_yet_approved' ) ;
#126 = PERSON ( 'Î´Ö¸¶¨', 'Î´Ö¸¶¨', 'Î´Ö¸¶¨', ('Î´Ö¸¶¨'), ('Î´Ö¸¶¨'), ('Î´Ö¸¶¨') ) ;
#127 = CARTESIAN_POINT ( 'NONE',  ( 0.000000000000000000, 99.86564103399575743, 4.791987176903720780 ) ) ;
#128 = CARTESIAN_POINT ( 'NONE',  ( 9.719289064679410117, 99.64913749651296371, 4.859644532339705059 ) ) ;
#129 = CC_DESIGN_PERSON_AND_ORGANIZATION_ASSIGNMENT ( #183, #200, ( #29 ) ) ;
#130 = DIRECTION ( 'NONE',  ( 0.000000000000000000, -1.000000000000000000, 0.000000000000000000 ) ) ;
#131 = FACE_OUTER_BOUND ( 'NONE', #309, .T. ) ;
#132 =( BOUNDED_CURVE ( )  B_SPLINE_CURVE ( 3, ( #3, #261, #148, #240 ),
 .UNSPECIFIED., .F., .T. ) 
 B_SPLINE_CURVE_WITH_KNOTS ( ( 4, 4 ),
 ( 0.000000000000000000, 1.000000000000000000 ),
 .UNSPECIFIED. ) 
 CURVE ( )  GEOMETRIC_REPRESENTATION_ITEM ( )  RATIONAL_B_SPLINE_CURVE ( ( 1.000000000000000000, 0.3333333333333333703, 0.3333333333333333703, 1.000000000000000000 ) ) 
 REPRESENTATION_ITEM ( '' )  );
#133 = CARTESIAN_POINT ( 'NONE',  ( 0.000000000000000000, 100.0000000000000000, 4.382404543304999400 ) ) ;
#134 = EDGE_LOOP ( 'NONE', ( #145 ) ) ;
#135 = VERTEX_POINT ( 'NONE', #89 ) ;
#136 = AXIS2_PLACEMENT_3D ( 'NONE', #171, #267, #9 ) ;
#137 = DIRECTION ( 'NONE',  ( -0.000000000000000000, -1.000000000000000000, -0.000000000000000000 ) ) ;
#138 = AXIS2_PLACEMENT_3D ( 'NONE', #152, #286, #4 ) ;
#139 = PERSON_AND_ORGANIZATION ( #126, #297 ) ;
#140 = CC_DESIGN_DATE_AND_TIME_ASSIGNMENT ( #282, #252, ( #29 ) ) ;
#141 = APPROVAL_DATE_TIME ( #15, #142 ) ;
#142 = APPROVAL ( #125, 'Î´Ö¸¶¨' ) ;
#143 = DIRECTION ( 'NONE',  ( 0.000000000000000000, 0.000000000000000000, -1.000000000000000000 ) ) ;
#144 = CARTESIAN_POINT ( 'NONE',  ( 9.583974353807441560, 99.86564103399578585, 4.791987176903720780 ) ) ;
#145 = ORIENTED_EDGE ( 'NONE', *, *, #99, .F. ) ;
#146 = AXIS2_PLACEMENT_3D ( 'NONE', #5, #130, #215 ) ;
#147 = CYLINDRICAL_SURFACE ( 'NONE', #43, 2.499999999999998224 ) ;
#148 = CARTESIAN_POINT ( 'NONE',  ( -8.764809086609997024, 100.0000000000000000, -4.382404543305000288 ) ) ;
#149 = CARTESIAN_POINT ( 'NONE',  ( 0.000000000000000000, 100.0000000000000000, 0.000000000000000000 ) ) ;
#150 = EDGE_CURVE ( 'NONE', #273, #273, #6, .T. ) ;
#151 = UNCERTAINTY_MEASURE_WITH_UNIT (LENGTH_MEASURE( 1.000000000000000082E-05 ), #248, 'distance_accuracy_value', 'NONE');
#152 = CARTESIAN_POINT ( 'NONE',  ( 0.000000000000000000, 25.00000000000000000, 0.000000000000000000 ) ) ;
#153 = DIRECTION ( 'NONE',  ( 0.000000000000000000, 0.000000000000000000, -1.000000000000000000 ) ) ;
#154 = DIRECTION ( 'NONE',  ( 0.000000000000000000, 0.000000000000000000, -1.000000000000000000 ) ) ;
#155 = PERSON_AND_ORGANIZATION ( #126, #297 ) ;
#156 = DIRECTION ( 'NONE',  ( 0.000000000000000000, 0.000000000000000000, 1.000000000000000000 ) ) ;
#157 = DIRECTION ( 'NONE',  ( 0.000000000000000000, 1.000000000000000000, 0.000000000000000000 ) ) ;
#158 =( BOUNDED_CURVE ( )  B_SPLINE_CURVE ( 3, ( #265, #57, #104, #133 ),
 .UNSPECIFIED., .F., .T. ) 
 B_SPLINE_CURVE_WITH_KNOTS ( ( 4, 4 ),
 ( 0.000000000000000000, 1.000000000000000000 ),
 .UNSPECIFIED. ) 
 CURVE ( )  GEOMETRIC_REPRESENTATION_ITEM ( )  RATIONAL_B_SPLINE_CURVE ( ( 1.000000000000000000, 0.3333333333333333703, 0.3333333333333333703, 1.000000000000000000 ) ) 
 REPRESENTATION_ITEM ( '' )  );
#159 = ORIENTED_EDGE ( 'NONE', *, *, #150, .F. ) ;
#160 = AXIS2_PLACEMENT_3D ( 'NONE', #245, #157, #63 ) ;
#161 = PERSON_AND_ORGANIZATION_ROLE ( 'creator' ) ;
#162 = EDGE_LOOP ( 'NONE', ( #284 ) ) ;
#163 = CARTESIAN_POINT ( 'NONE',  ( 9.218466664468715877, 99.99999999999998579, 4.609233332234357938 ) ) ;
#164 = SECURITY_CLASSIFICATION_LEVEL ( 'unclassified' ) ;
#165 = EDGE_LOOP ( 'NONE', ( #275 ) ) ;
#166 = EDGE_CURVE ( 'NONE', #67, #67, #306, .T. ) ;
#167 = FACE_OUTER_BOUND ( 'NONE', #250, .T. ) ;
#168 = DIRECTION ( 'NONE',  ( 0.000000000000000000, 1.000000000000000000, 0.000000000000000000 ) ) ;
#169 = CIRCLE ( 'NONE', #235, 6.000000000000000888 ) ;
#170 = FACE_OUTER_BOUND ( 'NONE', #201, .T. ) ;
#171 = CARTESIAN_POINT ( 'NONE',  ( 0.000000000000000000, 100.0000000000000000, 0.000000000000000000 ) ) ;
#172 = CARTESIAN_POINT ( 'NONE',  ( 0.000000000000000000, 89.89999999999999147, 1.649999999999998579 ) ) ;
#173 = LOCAL_TIME ( 10, 4, 22.00000000000000000, #78 ) ;
#174 = VERTEX_POINT ( 'NONE', #212 ) ;
#175 = EDGE_CURVE ( 'NONE', #16, #174, #158, .T. ) ;
#176 = VERTEX_POINT ( 'NONE', #172 ) ;
#177 =( NAMED_UNIT ( * ) PLANE_ANGLE_UNIT ( ) SI_UNIT ( $, .RADIAN. ) );
#178 = ORIENTED_EDGE ( 'NONE', *, *, #175, .F. ) ;
#179 = AXIS2_PLACEMENT_3D ( 'NONE', #288, #195, #154 ) ;
#180 = CALENDAR_DATE ( 2024, 12, 6 ) ;
#181 = APPROVAL_ROLE ( '' ) ;
#182 = CARTESIAN_POINT ( 'NONE',  ( -9.218466664468715877, 99.99999999999998579, -4.609233332234357938 ) ) ;
#183 = PERSON_AND_ORGANIZATION ( #126, #297 ) ;
#184 = CLOSED_SHELL ( 'NONE', ( #290, #2, #298, #207, #120, #115, #217, #232, #50, #55 ) ) ;
#185 = COORDINATED_UNIVERSAL_TIME_OFFSET ( 8, 0, .AHEAD. ) ;
#186 = EDGE_LOOP ( 'NONE', ( #37 ) ) ;
#187 = APPROVAL_ROLE ( '' ) ;
#188 = CARTESIAN_POINT ( 'NONE',  ( 0.000000000000000000, 99.86564103399575743, -4.791987176903720780 ) ) ;
#189 = PRODUCT_DEFINITION_FORMATION_WITH_SPECIFIED_SOURCE ( 'ÈÎºÎ', '', #34, .NOT_KNOWN. ) ;
#190 = CARTESIAN_POINT ( 'NONE',  ( -9.719289064679410117, 99.64913749651296371, 4.859644532339705059 ) ) ;
#191 = CC_DESIGN_PERSON_AND_ORGANIZATION_ASSIGNMENT ( #301, #24, ( #302 ) ) ;
#192 = DIRECTION ( 'NONE',  ( 0.000000000000000000, 1.000000000000000000, 0.000000000000000000 ) ) ;
#193 = FACE_OUTER_BOUND ( 'NONE', #295, .T. ) ;
#194 = CIRCLE ( 'NONE', #71, 2.499999999999998224 ) ;
#195 = DIRECTION ( 'NONE',  ( -0.000000000000000000, -1.000000000000000000, -0.000000000000000000 ) ) ;
#196 = FACE_BOUND ( 'NONE', #226, .T. ) ;
#197 = CARTESIAN_POINT ( 'NONE',  ( 0.000000000000000000, 11.00000000000000000, -2.499999999999998224 ) ) ;
#198 = ORIENTED_EDGE ( 'NONE', *, *, #175, .T. ) ;
#199 =( NAMED_UNIT ( * ) SI_UNIT ( $, .STERADIAN. ) SOLID_ANGLE_UNIT ( ) );
#200 = PERSON_AND_ORGANIZATION_ROLE ( 'classification_officer' ) ;
#201 = EDGE_LOOP ( 'NONE', ( #53 ) ) ;
#202 = CARTESIAN_POINT ( 'NONE',  ( 0.000000000000000000, 100.0000000000000000, -4.609233332234357938 ) ) ;
#203 = AXIS2_PLACEMENT_3D ( 'NONE', #38, #35, #95 ) ;
#204 = PERSON_AND_ORGANIZATION ( #126, #297 ) ;
#205 = DIRECTION ( 'NONE',  ( 0.000000000000000000, 1.000000000000000000, 0.000000000000000000 ) ) ;
#206 = ORIENTED_EDGE ( 'NONE', *, *, #210, .T. ) ;
#207 = ADVANCED_FACE ( 'NONE', ( #106, #60 ), #84, .T. ) ;
#208 = CARTESIAN_POINT ( 'NONE',  ( -8.764809086609998801, 100.0000000000000142, 4.382404543304999400 ) ) ;
#209 = FACE_OUTER_BOUND ( 'NONE', #96, .T. ) ;
#210 = EDGE_CURVE ( 'NONE', #224, #224, #221, .T. ) ;
#211 = CC_DESIGN_SECURITY_CLASSIFICATION ( #29, ( #189 ) ) ;
#212 = CARTESIAN_POINT ( 'NONE',  ( 0.000000000000000000, 100.0000000000000000, 4.382404543304999400 ) ) ;
#213 = CARTESIAN_POINT ( 'NONE',  ( 0.000000000000000000, 95.99999999999997158, 0.000000000000000000 ) ) ;
#214 = DESIGN_CONTEXT ( 'detailed design', #36, 'design' ) ;
#215 = DIRECTION ( 'NONE',  ( 0.000000000000000000, 0.000000000000000000, -1.000000000000000000 ) ) ;
#216 = CYLINDRICAL_SURFACE ( 'NONE', #304, 1.649999999999998579 ) ;
#217 = ADVANCED_FACE ( 'NONE', ( #131, #167 ), #216, .F. ) ;
#218 = CYLINDRICAL_SURFACE ( 'NONE', #138, 6.000000000000000888 ) ;
#219 = MECHANICAL_CONTEXT ( 'NONE', #93, 'mechanical' ) ;
#220 = ORIENTED_EDGE ( 'NONE', *, *, #14, .F. ) ;
#221 = CIRCLE ( 'NONE', #26, 6.000000000000000888 ) ;
#222 = VERTEX_POINT ( 'NONE', #296 ) ;
#223 = APPROVAL ( #101, 'Î´Ö¸¶¨' ) ;
#224 = VERTEX_POINT ( 'NONE', #271 ) ;
#225 = AXIS2_PLACEMENT_3D ( 'NONE', #230, #205, #285 ) ;
#226 = EDGE_LOOP ( 'NONE', ( #68 ) ) ;
#227 = DATE_AND_TIME ( #180, #173 ) ;
#228 = APPROVAL_PERSON_ORGANIZATION ( #139, #242, #187 ) ;
#229 = DATE_AND_TIME ( #256, #113 ) ;
#230 = CARTESIAN_POINT ( 'NONE',  ( 0.000000000000000000, 89.89999999999999147, 0.000000000000000000 ) ) ;
#231 = COORDINATED_UNIVERSAL_TIME_OFFSET ( 8, 0, .AHEAD. ) ;
#232 = ADVANCED_FACE ( 'NONE', ( #54, #88 ), #30, .T. ) ;
#233 = CARTESIAN_POINT ( 'NONE',  ( 0.000000000000000000, 0.000000000000000000, 0.000000000000000000 ) ) ;
#234 = ORIENTED_EDGE ( 'NONE', *, *, #264, .F. ) ;
#235 = AXIS2_PLACEMENT_3D ( 'NONE', #213, #86, #62 ) ;
#236 = DIRECTION ( 'NONE',  ( 0.000000000000000000, 0.000000000000000000, 1.000000000000000000 ) ) ;
#237 = FACE_BOUND ( 'NONE', #102, .T. ) ;
#238 = DIRECTION ( 'NONE',  ( -0.000000000000000000, 1.000000000000000000, 0.000000000000000000 ) ) ;
#239 = PRODUCT_DEFINITION_SHAPE ( 'NONE', 'NONE',  #302 ) ;
#240 = CARTESIAN_POINT ( 'NONE',  ( 5.483787781522369726E-16, 100.0000000000000000, -4.382404543304999400 ) ) ;
#241 = CARTESIAN_POINT ( 'NONE',  ( 0.000000000000000000, 1.040949779275260987E-16, -2.499999999999998224 ) ) ;
#242 = APPROVAL ( #13, 'Î´Ö¸¶¨' ) ;
#243 = PERSON_AND_ORGANIZATION_ROLE ( 'design_owner' ) ;
#244 = CIRCLE ( 'NONE', #160, 5.500000000040472514 ) ;
#245 = CARTESIAN_POINT ( 'NONE',  ( 0.000000000000000000, 0.000000000000000000, 0.000000000000000000 ) ) ;
#246 = APPLICATION_PROTOCOL_DEFINITION ( 'international standard', 'config_control_design', 1994, #93 ) ;
#247 = AXIS2_PLACEMENT_3D ( 'NONE', #105, #238, #236 ) ;
#248 =( LENGTH_UNIT ( ) NAMED_UNIT ( * ) SI_UNIT ( .MILLI., .METRE. ) );
#249 = AXIS2_PLACEMENT_3D ( 'NONE', #94, #293, #270 ) ;
#250 = EDGE_LOOP ( 'NONE', ( #220 ) ) ;
#251 = APPROVAL_PERSON_ORGANIZATION ( #98, #142, #181 ) ;
#252 = DATE_TIME_ROLE ( 'classification_date' ) ;
#253 = CARTESIAN_POINT ( 'NONE',  ( 0.000000000000000000, 1.040949779275260987E-16, 0.000000000000000000 ) ) ;
#254 = ORIENTED_EDGE ( 'NONE', *, *, #150, .T. ) ;
#255 = CARTESIAN_POINT ( 'NONE',  ( -9.218466664468715877, 99.99999999999998579, 4.609233332234357938 ) ) ;
#256 = CALENDAR_DATE ( 2024, 12, 6 ) ;
#257 = ORIENTED_EDGE ( 'NONE', *, *, #274, .F. ) ;
#258 = CARTESIAN_POINT ( 'NONE',  ( 0.000000000000000000, 100.0000000000000000, 4.382404543304999400 ) ) ;
#259 = CARTESIAN_POINT ( 'NONE',  ( 0.000000000000000000, 100.0000000000000000, -4.382404543304999400 ) ) ;
#260 = CARTESIAN_POINT ( 'NONE',  ( 0.000000000000000000, 0.5000000001018634066, 0.000000000000000000 ) ) ;
#261 = CARTESIAN_POINT ( 'NONE',  ( -8.764809086609997024, 100.0000000000000000, 4.382404543304999400 ) ) ;
#262 = CARTESIAN_POINT ( 'NONE',  ( 0.000000000000000000, 99.64913749651296371, 4.859644532339705059 ) ) ;
#263 = CONICAL_SURFACE ( 'NONE', #146, 5.999999999971805664, 0.3028848683740845149 ) ;
#264 = EDGE_CURVE ( 'NONE', #222, #222, #111, .T. ) ;
#265 = CARTESIAN_POINT ( 'NONE',  ( 5.483787781522369726E-16, 100.0000000000000000, -4.382404543304999400 ) ) ;
#266 = DIRECTION ( 'NONE',  ( 0.000000000000000000, 0.000000000000000000, -1.000000000000000000 ) ) ;
#267 = DIRECTION ( 'NONE',  ( 0.000000000000000000, 1.000000000000000000, 0.000000000000000000 ) ) ;
#268 = CC_DESIGN_APPROVAL ( #142, ( #189 ) ) ;
#269 = CARTESIAN_POINT ( 'NONE',  ( 0.000000000000000000, 0.000000000000000000, 0.000000000000000000 ) ) ;
#270 = DIRECTION ( 'NONE',  ( 0.000000000000000000, -0.000000000000000000, 1.000000000000000000 ) ) ;
#271 = CARTESIAN_POINT ( 'NONE',  ( 0.000000000000000000, 0.5000000000000004441, -6.000000000000000888 ) ) ;
#272 = ORIENTED_EDGE ( 'NONE', *, *, #166, .T. ) ;
#273 = VERTEX_POINT ( 'NONE', #197 ) ;
#274 = EDGE_CURVE ( 'NONE', #112, #112, #244, .T. ) ;
#275 = ORIENTED_EDGE ( 'NONE', *, *, #264, .T. ) ;
#276 =( GEOMETRIC_REPRESENTATION_CONTEXT ( 3 ) GLOBAL_UNCERTAINTY_ASSIGNED_CONTEXT ( ( #151 ) ) GLOBAL_UNIT_ASSIGNED_CONTEXT ( ( #248, #177, #199 ) ) REPRESENTATION_CONTEXT ( 'NONE', 'WORKASPACE' ) );
#277 = CALENDAR_DATE ( 2024, 12, 6 ) ;
#278 = ORIENTED_EDGE ( 'NONE', *, *, #22, .T. ) ;
#279 = CC_DESIGN_PERSON_AND_ORGANIZATION_ASSIGNMENT ( #18, #123, ( #189 ) ) ;
#280 = CARTESIAN_POINT ( 'NONE',  ( 9.583974353807441560, 99.86564103399578585, -4.791987176903720780 ) ) ;
#281 = FACE_OUTER_BOUND ( 'NONE', #80, .T. ) ;
#282 = DATE_AND_TIME ( #72, #12 ) ;
#283 = CARTESIAN_POINT ( 'NONE',  ( -9.583974353807441560, 99.86564103399578585, 4.791987176903720780 ) ) ;
#284 = ORIENTED_EDGE ( 'NONE', *, *, #14, .T. ) ;
#285 = DIRECTION ( 'NONE',  ( 0.000000000000000000, 0.000000000000000000, 1.000000000000000000 ) ) ;
#286 = DIRECTION ( 'NONE',  ( -0.000000000000000000, -1.000000000000000000, -0.000000000000000000 ) ) ;
#287 = ADVANCED_BREP_SHAPE_REPRESENTATION ( '524211', ( #7, #10 ), #276 ) ;
#288 = CARTESIAN_POINT ( 'NONE',  ( 0.000000000000000000, 11.00000000000000000, 0.000000000000000000 ) ) ;
#289 = CARTESIAN_POINT ( 'NONE',  ( 9.719289064679410117, 99.64913749651296371, -4.859644532339705059 ) ) ;
#290 = ADVANCED_FACE ( 'NONE', ( #44 ), #39, .F. ) ;
#291 = FACE_OUTER_BOUND ( 'NONE', #134, .T. ) ;
#292 = DIRECTION ( 'NONE',  ( 0.000000000000000000, 0.000000000000000000, 1.000000000000000000 ) ) ;
#293 = DIRECTION ( 'NONE',  ( 0.000000000000000000, 1.000000000000000000, 0.000000000000000000 ) ) ;
#294 = AXIS2_PLACEMENT_3D ( 'NONE', #260, #192, #82 ) ;
#295 = EDGE_LOOP ( 'NONE', ( #206 ) ) ;
#296 = CARTESIAN_POINT ( 'NONE',  ( 0.000000000000000000, 100.0000000000000000, 1.649999999999998579 ) ) ;
#297 = ORGANIZATION ( 'Î´Ö¸¶¨', 'Î´Ö¸¶¨', '' ) ;
#298 = ADVANCED_FACE ( 'NONE', ( #196, #114 ), #11, .F. ) ;
#299 = DIRECTION ( 'NONE',  ( 1.000000000000000000, 0.000000000000000000, 0.000000000000000000 ) ) ;
#300 = EDGE_LOOP ( 'NONE', ( #254 ) ) ;
#301 = PERSON_AND_ORGANIZATION ( #126, #297 ) ;
#302 = PRODUCT_DEFINITION ( 'Î´Öª', '', #189, #214 ) ;
#303 = DIRECTION ( 'NONE',  ( -0.000000000000000000, -1.000000000000000000, -0.000000000000000000 ) ) ;
#304 = AXIS2_PLACEMENT_3D ( 'NONE', #149, #107, #292 ) ;
#305 = COORDINATED_UNIVERSAL_TIME_OFFSET ( 8, 0, .AHEAD. ) ;
#306 = CIRCLE ( 'NONE', #56, 4.859644532331230948 ) ;
#307 = CARTESIAN_POINT ( 'NONE',  ( -9.583974353807441560, 99.86564103399578585, -4.791987176903720780 ) ) ;
#308 = CALENDAR_DATE ( 2024, 12, 6 ) ;
#309 = EDGE_LOOP ( 'NONE', ( #234 ) ) ;
ENDSEC;
END-ISO-10303-21;
