ISO-10303-21;
HEADER;
FILE_DESCRIPTION (( 'STEP AP214' ),
    '1' );
FILE_NAME ('511003.STEP',
    '2019-09-12T08:21:15',
    ( '' ),
    ( '' ),
    'SwSTEP 2.0',
    'SolidWorks 2016',
    '' );
FILE_SCHEMA (( 'AUTOMOTIVE_DESIGN' ));
ENDSEC;

DATA;
#1 = CYLINDRICAL_SURFACE ( 'NONE', #242, 19.05000000000001100 ) ;
#2 = VERTEX_POINT ( 'NONE', #170 ) ;
#3 = EDGE_CURVE ( 'NONE', #72, #2, #45, .T. ) ;
#4 = CIRCLE ( 'NONE', #176, 19.05000000000001100 ) ;
#5 = DIRECTION ( 'NONE',  ( -0.0000000000000000000, 1.000000000000000000, -0.0000000000000000000 ) ) ;
#6 = EDGE_CURVE ( 'NONE', #2, #72, #241, .T. ) ;
#7 = UNCERTAINTY_MEASURE_WITH_UNIT (LENGTH_MEASURE( 1.000000000000000100E-005 ), #84, 'distance_accuracy_value', 'NONE');
#8 = ORIENTED_EDGE ( 'NONE', *, *, #109, .F. ) ;
#9 = SURFACE_SIDE_STYLE ('',( #229 ) ) ;
#10 = AXIS2_PLACEMENT_3D ( 'NONE', #14, #119, #62 ) ;
#11 = CARTESIAN_POINT ( 'NONE',  ( 0.0000000000000000000, 0.0000000000000000000, 0.0000000000000000000 ) ) ;
#12 = AXIS2_PLACEMENT_3D ( 'NONE', #237, #48, #65 ) ;
#13 =( NAMED_UNIT ( * ) SI_UNIT ( $, .STERADIAN. ) SOLID_ANGLE_UNIT ( ) );
#14 = CARTESIAN_POINT ( 'NONE',  ( 15.00000000000001100, 2.500000000000000000, 0.0000000000000000000 ) ) ;
#15 = DIRECTION ( 'NONE',  ( -0.0000000000000000000, 1.000000000000000000, -0.0000000000000000000 ) ) ;
#16 = CARTESIAN_POINT ( 'NONE',  ( 0.0000000000000000000, 77.14414226561778800, 19.05000000000001100 ) ) ;
#17 = LINE ( 'NONE', #209, #187 ) ;
#18 = UNCERTAINTY_MEASURE_WITH_UNIT (LENGTH_MEASURE( 1.000000000000000100E-005 ), #177, 'distance_accuracy_value', 'NONE');
#19 = ORIENTED_EDGE ( 'NONE', *, *, #152, .T. ) ;
#20 =( NAMED_UNIT ( * ) SI_UNIT ( $, .STERADIAN. ) SOLID_ANGLE_UNIT ( ) );
#21 = AXIS2_PLACEMENT_3D ( 'NONE', #34, #49, #86 ) ;
#22 = PRODUCT_DEFINITION ( 'Î´Öª', '', #163, #116 ) ;
#23 = ORIENTED_EDGE ( 'NONE', *, *, #6, .T. ) ;
#24 =( LENGTH_UNIT ( ) NAMED_UNIT ( * ) SI_UNIT ( .MILLI., .METRE. ) );
#25 = CARTESIAN_POINT ( 'NONE',  ( 0.0000000000000000000, 77.14414226561778800, 0.0000000000000000000 ) ) ;
#26 = CARTESIAN_POINT ( 'NONE',  ( 0.0000000000000000000, 77.14414226561778800, 0.0000000000000000000 ) ) ;
#27 = FILL_AREA_STYLE ('',( #213 ) ) ;
#28 = DIRECTION ( 'NONE',  ( 0.0000000000000000000, 0.0000000000000000000, 1.000000000000000000 ) ) ;
#29 = CYLINDRICAL_SURFACE ( 'NONE', #200, 15.00000000000001100 ) ;
#30 = DIRECTION ( 'NONE',  ( 0.0000000000000000000, 0.0000000000000000000, 1.000000000000000000 ) ) ;
#31 = EDGE_LOOP ( 'NONE', ( #238, #142, #23, #137 ) ) ;
#32 = DIRECTION ( 'NONE',  ( -0.0000000000000000000, 1.000000000000000000, -0.0000000000000000000 ) ) ;
#33 = APPLICATION_CONTEXT ( 'automotive_design' ) ;
#34 = CARTESIAN_POINT ( 'NONE',  ( 15.00000000000001100, 0.0000000000000000000, 0.0000000000000000000 ) ) ;
#35 = CARTESIAN_POINT ( 'NONE',  ( 1.836970198721031200E-015, 0.0000000000000000000, -15.00000000000001100 ) ) ;
#36 = DIRECTION ( 'NONE',  ( -0.0000000000000000000, 1.000000000000000000, -0.0000000000000000000 ) ) ;
#37 = PRESENTATION_LAYER_ASSIGNMENT (  '', '', ( #44 ) ) ;
#38 = CYLINDRICAL_SURFACE ( 'NONE', #118, 19.05000000000001100 ) ;
#39 = SURFACE_STYLE_FILL_AREA ( #50 ) ;
#40 = PRODUCT_DEFINITION_SHAPE ( 'NONE', 'NONE',  #22 ) ;
#41 = FACE_OUTER_BOUND ( 'NONE', #167, .T. ) ;
#42 = ORIENTED_EDGE ( 'NONE', *, *, #96, .T. ) ;
#43 = MANIFOLD_SOLID_BREP ( 'Ðý×ª1', #77 ) ;
#44 = STYLED_ITEM ( 'NONE', ( #235 ), #63 ) ;
#45 = CIRCLE ( 'NONE', #205, 15.00000000000001100 ) ;
#46 =( NAMED_UNIT ( * ) PLANE_ANGLE_UNIT ( ) SI_UNIT ( $, .RADIAN. ) );
#47 = CIRCLE ( 'NONE', #108, 15.00000000000001100 ) ;
#48 = DIRECTION ( 'NONE',  ( 0.0000000000000000000, 0.0000000000000000000, 1.000000000000000000 ) ) ;
#49 = DIRECTION ( 'NONE',  ( -0.0000000000000000000, 1.000000000000000000, 0.0000000000000000000 ) ) ;
#50 = FILL_AREA_STYLE ('',( #144 ) ) ;
#51 = UNCERTAINTY_MEASURE_WITH_UNIT (LENGTH_MEASURE( 1.000000000000000100E-005 ), #244, 'distance_accuracy_value', 'NONE');
#52 = DIRECTION ( 'NONE',  ( 0.0000000000000000000, 0.0000000000000000000, 1.000000000000000000 ) ) ;
#53 = CARTESIAN_POINT ( 'NONE',  ( 0.0000000000000000000, 2.500000000000002200, 0.0000000000000000000 ) ) ;
#54 = VECTOR ( 'NONE', #36, 1000.000000000000000 ) ;
#55 = EDGE_LOOP ( 'NONE', ( #211, #42, #8, #199 ) ) ;
#56 = ADVANCED_FACE ( 'NONE', ( #240 ), #224, .F. ) ;
#57 = EDGE_LOOP ( 'NONE', ( #215, #85 ) ) ;
#58 = EDGE_CURVE ( 'NONE', #154, #114, #47, .T. ) ;
#59 = EDGE_CURVE ( 'NONE', #113, #179, #4, .T. ) ;
#60 =( GEOMETRIC_REPRESENTATION_CONTEXT ( 3 ) GLOBAL_UNCERTAINTY_ASSIGNED_CONTEXT ( ( #7 ) ) GLOBAL_UNIT_ASSIGNED_CONTEXT ( ( #84, #207, #13 ) ) REPRESENTATION_CONTEXT ( 'NONE', 'WORKASPACE' ) );
#61 = CIRCLE ( 'NONE', #160, 19.05000000000001100 ) ;
#62 = DIRECTION ( 'NONE',  ( 0.0000000000000000000, -0.0000000000000000000, -1.000000000000000000 ) ) ;
#63 = ADVANCED_FACE ( 'NONE', ( #148 ), #29, .F. ) ;
#64 = CARTESIAN_POINT ( 'NONE',  ( 0.0000000000000000000, 0.0000000000000000000, 19.05000000000001100 ) ) ;
#65 = DIRECTION ( 'NONE',  ( 1.000000000000000000, 0.0000000000000000000, 0.0000000000000000000 ) ) ;
#66 = ORIENTED_EDGE ( 'NONE', *, *, #3, .T. ) ;
#67 = PLANE ( 'NONE',  #10 ) ;
#68 = CARTESIAN_POINT ( 'NONE',  ( 0.0000000000000000000, 77.14414226561778800, 0.0000000000000000000 ) ) ;
#69 = CARTESIAN_POINT ( 'NONE',  ( 0.0000000000000000000, 0.0000000000000000000, 0.0000000000000000000 ) ) ;
#70 = AXIS2_PLACEMENT_3D ( 'NONE', #101, #146, #28 ) ;
#71 = PRESENTATION_LAYER_ASSIGNMENT (  '', '', ( #173 ) ) ;
#72 = VERTEX_POINT ( 'NONE', #192 ) ;
#73 = FILL_AREA_STYLE ('',( #157 ) ) ;
#74 = ORIENTED_EDGE ( 'NONE', *, *, #120, .F. ) ;
#75 = EDGE_LOOP ( 'NONE', ( #226, #174, #88, #66 ) ) ;
#76 = FILL_AREA_STYLE ('',( #225 ) ) ;
#77 = CLOSED_SHELL ( 'NONE', ( #56, #153, #107, #78, #90, #63 ) ) ;
#78 = ADVANCED_FACE ( 'NONE', ( #216 ), #38, .T. ) ;
#79 = PRESENTATION_LAYER_ASSIGNMENT (  '', '', ( #183 ) ) ;
#80 = SURFACE_STYLE_USAGE ( .BOTH. , #181 ) ;
#81 = CIRCLE ( 'NONE', #70, 19.05000000000001100 ) ;
#82 = EDGE_CURVE ( 'NONE', #154, #2, #203, .T. ) ;
#83 = DIRECTION ( 'NONE',  ( -0.0000000000000000000, 1.000000000000000000, -0.0000000000000000000 ) ) ;
#84 =( LENGTH_UNIT ( ) NAMED_UNIT ( * ) SI_UNIT ( .MILLI., .METRE. ) );
#85 = ORIENTED_EDGE ( 'NONE', *, *, #6, .F. ) ;
#86 = DIRECTION ( 'NONE',  ( 0.0000000000000000000, 0.0000000000000000000, 1.000000000000000000 ) ) ;
#87 = DIRECTION ( 'NONE',  ( 0.0000000000000000000, 0.0000000000000000000, 1.000000000000000000 ) ) ;
#88 = ORIENTED_EDGE ( 'NONE', *, *, #186, .T. ) ;
#89 = PRESENTATION_STYLE_ASSIGNMENT (( #145 ) ) ;
#90 = ADVANCED_FACE ( 'NONE', ( #201, #41 ), #67, .F. ) ;
#91 = FACE_OUTER_BOUND ( 'NONE', #55, .T. ) ;
#92 = VERTEX_POINT ( 'NONE', #102 ) ;
#93 = ORIENTED_EDGE ( 'NONE', *, *, #109, .T. ) ;
#94 =( GEOMETRIC_REPRESENTATION_CONTEXT ( 3 ) GLOBAL_UNCERTAINTY_ASSIGNED_CONTEXT ( ( #51 ) ) GLOBAL_UNIT_ASSIGNED_CONTEXT ( ( #244, #131, #20 ) ) REPRESENTATION_CONTEXT ( 'NONE', 'WORKASPACE' ) );
#95 = ORIENTED_EDGE ( 'NONE', *, *, #59, .F. ) ;
#96 = EDGE_CURVE ( 'NONE', #179, #92, #17, .T. ) ;
#97 =( NAMED_UNIT ( * ) PLANE_ANGLE_UNIT ( ) SI_UNIT ( $, .RADIAN. ) );
#98 = DIRECTION ( 'NONE',  ( 0.0000000000000000000, 0.0000000000000000000, 1.000000000000000000 ) ) ;
#99 = LINE ( 'NONE', #16, #54 ) ;
#100 = APPLICATION_CONTEXT ( 'automotive_design' ) ;
#101 = CARTESIAN_POINT ( 'NONE',  ( 0.0000000000000000000, 2.500000000000002200, 0.0000000000000000000 ) ) ;
#102 = CARTESIAN_POINT ( 'NONE',  ( 2.332952152375709200E-015, 2.500000000000002200, -19.05000000000001100 ) ) ;
#103 =( LENGTH_UNIT ( ) NAMED_UNIT ( * ) SI_UNIT ( .MILLI., .METRE. ) );
#104 = CARTESIAN_POINT ( 'NONE',  ( 0.0000000000000000000, 77.14414226561778800, 0.0000000000000000000 ) ) ;
#105 = CARTESIAN_POINT ( 'NONE',  ( 0.0000000000000000000, 2.500000000000002200, 19.05000000000001100 ) ) ;
#106 = FACE_OUTER_BOUND ( 'NONE', #185, .T. ) ;
#107 = ADVANCED_FACE ( 'NONE', ( #106, #140 ), #228, .F. ) ;
#108 = AXIS2_PLACEMENT_3D ( 'NONE', #11, #212, #139 ) ;
#109 = EDGE_CURVE ( 'NONE', #188, #92, #81, .T. ) ;
#110 = PRESENTATION_LAYER_ASSIGNMENT (  '', '', ( #155 ) ) ;
#111 = VECTOR ( 'NONE', #161, 1000.000000000000000 ) ;
#112 = CARTESIAN_POINT ( 'NONE',  ( 0.0000000000000000000, 2.500000000000002200, 0.0000000000000000000 ) ) ;
#113 = VERTEX_POINT ( 'NONE', #64 ) ;
#114 = VERTEX_POINT ( 'NONE', #162 ) ;
#115 = SURFACE_SIDE_STYLE ('',( #191 ) ) ;
#116 = PRODUCT_DEFINITION_CONTEXT ( 'detailed design', #33, 'design' ) ;
#117 =( NAMED_UNIT ( * ) SI_UNIT ( $, .STERADIAN. ) SOLID_ANGLE_UNIT ( ) );
#118 = AXIS2_PLACEMENT_3D ( 'NONE', #104, #214, #30 ) ;
#119 = DIRECTION ( 'NONE',  ( 0.0000000000000000000, -1.000000000000000000, 0.0000000000000000000 ) ) ;
#120 = EDGE_CURVE ( 'NONE', #179, #113, #156, .T. ) ;
#121 = DIRECTION ( 'NONE',  ( -0.0000000000000000000, 1.000000000000000000, -0.0000000000000000000 ) ) ;
#122 = MECHANICAL_DESIGN_GEOMETRIC_PRESENTATION_REPRESENTATION (  '', ( #173 ), #234 ) ;
#123 =( NAMED_UNIT ( * ) SI_UNIT ( $, .STERADIAN. ) SOLID_ANGLE_UNIT ( ) );
#124 = ORIENTED_EDGE ( 'NONE', *, *, #120, .T. ) ;
#125 = CARTESIAN_POINT ( 'NONE',  ( 0.0000000000000000000, 0.0000000000000000000, 0.0000000000000000000 ) ) ;
#126 = CARTESIAN_POINT ( 'NONE',  ( 2.332952152375709200E-015, 0.0000000000000000000, -19.05000000000001100 ) ) ;
#127 = DIRECTION ( 'NONE',  ( -0.0000000000000000000, 1.000000000000000000, -0.0000000000000000000 ) ) ;
#128 = EDGE_CURVE ( 'NONE', #92, #188, #61, .T. ) ;
#129 = EDGE_LOOP ( 'NONE', ( #223, #124, #19, #130 ) ) ;
#130 = ORIENTED_EDGE ( 'NONE', *, *, #128, .F. ) ;
#131 =( NAMED_UNIT ( * ) PLANE_ANGLE_UNIT ( ) SI_UNIT ( $, .RADIAN. ) );
#132 = AXIS2_PLACEMENT_3D ( 'NONE', #125, #32, #180 ) ;
#133 = PRESENTATION_STYLE_ASSIGNMENT (( #206 ) ) ;
#134 = EDGE_CURVE ( 'NONE', #114, #154, #182, .T. ) ;
#135 = SURFACE_STYLE_USAGE ( .BOTH. , #115 ) ;
#136 = MECHANICAL_DESIGN_GEOMETRIC_PRESENTATION_REPRESENTATION (  '', ( #155 ), #219 ) ;
#137 = ORIENTED_EDGE ( 'NONE', *, *, #186, .F. ) ;
#138 = DIRECTION ( 'NONE',  ( -0.0000000000000000000, 1.000000000000000000, -0.0000000000000000000 ) ) ;
#139 = DIRECTION ( 'NONE',  ( 0.0000000000000000000, 0.0000000000000000000, 1.000000000000000000 ) ) ;
#140 = FACE_BOUND ( 'NONE', #220, .T. ) ;
#141 = COLOUR_RGB ( '',1.000000000000000000, 1.000000000000000000, 1.000000000000000000 ) ;
#142 = ORIENTED_EDGE ( 'NONE', *, *, #82, .T. ) ;
#143 = APPLICATION_PROTOCOL_DEFINITION ( 'draft international standard', 'automotive_design', 1998, #33 ) ;
#144 = FILL_AREA_STYLE_COLOUR ( '', #208 ) ;
#145 = SURFACE_STYLE_USAGE ( .BOTH. , #195 ) ;
#146 = DIRECTION ( 'NONE',  ( -0.0000000000000000000, 1.000000000000000000, -0.0000000000000000000 ) ) ;
#147 = DIRECTION ( 'NONE',  ( -0.0000000000000000000, 1.000000000000000000, -0.0000000000000000000 ) ) ;
#148 = FACE_OUTER_BOUND ( 'NONE', #75, .T. ) ;
#149 = DIRECTION ( 'NONE',  ( 0.0000000000000000000, 0.0000000000000000000, 1.000000000000000000 ) ) ;
#150 = PRESENTATION_STYLE_ASSIGNMENT (( #135 ) ) ;
#151 = MECHANICAL_DESIGN_GEOMETRIC_PRESENTATION_REPRESENTATION (  '', ( #44 ), #193 ) ;
#152 = EDGE_CURVE ( 'NONE', #113, #188, #99, .T. ) ;
#153 = ADVANCED_FACE ( 'NONE', ( #91 ), #1, .T. ) ;
#154 = VERTEX_POINT ( 'NONE', #35 ) ;
#155 = STYLED_ITEM ( 'NONE', ( #150 ), #43 ) ;
#156 = CIRCLE ( 'NONE', #132, 19.05000000000001100 ) ;
#157 = FILL_AREA_STYLE_COLOUR ( '', #184 ) ;
#158 = DIRECTION ( 'NONE',  ( -0.0000000000000000000, 1.000000000000000000, -0.0000000000000000000 ) ) ;
#159 = CARTESIAN_POINT ( 'NONE',  ( 0.0000000000000000000, 0.0000000000000000000, 0.0000000000000000000 ) ) ;
#160 = AXIS2_PLACEMENT_3D ( 'NONE', #53, #15, #87 ) ;
#161 = DIRECTION ( 'NONE',  ( -0.0000000000000000000, 1.000000000000000000, -0.0000000000000000000 ) ) ;
#162 = CARTESIAN_POINT ( 'NONE',  ( 0.0000000000000000000, 0.0000000000000000000, 15.00000000000001100 ) ) ;
#163 = PRODUCT_DEFINITION_FORMATION_WITH_SPECIFIED_SOURCE ( 'ÈÎºÎ', '', #168, .NOT_KNOWN. ) ;
#164 = DIRECTION ( 'NONE',  ( -0.0000000000000000000, 1.000000000000000000, -0.0000000000000000000 ) ) ;
#165 = CARTESIAN_POINT ( 'NONE',  ( 0.0000000000000000000, 77.14414226561778800, 15.00000000000001100 ) ) ;
#166 = AXIS2_PLACEMENT_3D ( 'NONE', #25, #158, #196 ) ;
#167 = EDGE_LOOP ( 'NONE', ( #93, #169 ) ) ;
#168 = PRODUCT ( '511003', '511003', '', ( #233 ) ) ;
#169 = ORIENTED_EDGE ( 'NONE', *, *, #128, .T. ) ;
#170 = CARTESIAN_POINT ( 'NONE',  ( 1.836970198721031200E-015, 2.500000000000002200, -15.00000000000001100 ) ) ;
#171 = AXIS2_PLACEMENT_3D ( 'NONE', #69, #127, #52 ) ;
#172 = SURFACE_STYLE_FILL_AREA ( #27 ) ;
#173 = STYLED_ITEM ( 'NONE', ( #89 ), #198 ) ;
#174 = ORIENTED_EDGE ( 'NONE', *, *, #134, .F. ) ;
#175 = DIRECTION ( 'NONE',  ( 0.0000000000000000000, 0.0000000000000000000, 1.000000000000000000 ) ) ;
#176 = AXIS2_PLACEMENT_3D ( 'NONE', #159, #232, #194 ) ;
#177 =( LENGTH_UNIT ( ) NAMED_UNIT ( * ) SI_UNIT ( .MILLI., .METRE. ) );
#178 = CARTESIAN_POINT ( 'NONE',  ( 1.836970198721031200E-015, 77.14414226561778800, -15.00000000000001100 ) ) ;
#179 = VERTEX_POINT ( 'NONE', #126 ) ;
#180 = DIRECTION ( 'NONE',  ( 0.0000000000000000000, 0.0000000000000000000, 1.000000000000000000 ) ) ;
#181 = SURFACE_SIDE_STYLE ('',( #39 ) ) ;
#182 = CIRCLE ( 'NONE', #171, 15.00000000000001100 ) ;
#183 = STYLED_ITEM ( 'NONE', ( #133 ), #56 ) ;
#184 = COLOUR_RGB ( '',1.000000000000000000, 1.000000000000000000, 1.000000000000000000 ) ;
#185 = EDGE_LOOP ( 'NONE', ( #95, #74 ) ) ;
#186 = EDGE_CURVE ( 'NONE', #114, #72, #190, .T. ) ;
#187 = VECTOR ( 'NONE', #121, 1000.000000000000000 ) ;
#188 = VERTEX_POINT ( 'NONE', #105 ) ;
#189 =( NAMED_UNIT ( * ) SI_UNIT ( $, .STERADIAN. ) SOLID_ANGLE_UNIT ( ) );
#190 = LINE ( 'NONE', #165, #222 ) ;
#191 = SURFACE_STYLE_FILL_AREA ( #73 ) ;
#192 = CARTESIAN_POINT ( 'NONE',  ( 0.0000000000000000000, 2.500000000000002200, 15.00000000000001100 ) ) ;
#193 =( GEOMETRIC_REPRESENTATION_CONTEXT ( 3 ) GLOBAL_UNCERTAINTY_ASSIGNED_CONTEXT ( ( #18 ) ) GLOBAL_UNIT_ASSIGNED_CONTEXT ( ( #177, #46, #117 ) ) REPRESENTATION_CONTEXT ( 'NONE', 'WORKASPACE' ) );
#194 = DIRECTION ( 'NONE',  ( 0.0000000000000000000, 0.0000000000000000000, 1.000000000000000000 ) ) ;
#195 = SURFACE_SIDE_STYLE ('',( #172 ) ) ;
#196 = DIRECTION ( 'NONE',  ( 0.0000000000000000000, 0.0000000000000000000, 1.000000000000000000 ) ) ;
#197 = APPLICATION_PROTOCOL_DEFINITION ( 'draft international standard', 'automotive_design', 1998, #100 ) ;
#198 = ADVANCED_BREP_SHAPE_REPRESENTATION ( '511003', ( #43, #12 ), #60 ) ;
#199 = ORIENTED_EDGE ( 'NONE', *, *, #152, .F. ) ;
#200 = AXIS2_PLACEMENT_3D ( 'NONE', #26, #83, #210 ) ;
#201 = FACE_BOUND ( 'NONE', #57, .T. ) ;
#202 = UNCERTAINTY_MEASURE_WITH_UNIT (LENGTH_MEASURE( 1.000000000000000100E-005 ), #103, 'distance_accuracy_value', 'NONE');
#203 = LINE ( 'NONE', #178, #111 ) ;
#204 = CARTESIAN_POINT ( 'NONE',  ( 0.0000000000000000000, 2.500000000000002200, 0.0000000000000000000 ) ) ;
#205 = AXIS2_PLACEMENT_3D ( 'NONE', #204, #5, #98 ) ;
#206 = SURFACE_STYLE_USAGE ( .BOTH. , #9 ) ;
#207 =( NAMED_UNIT ( * ) PLANE_ANGLE_UNIT ( ) SI_UNIT ( $, .RADIAN. ) );
#208 = COLOUR_RGB ( '',1.000000000000000000, 1.000000000000000000, 1.000000000000000000 ) ;
#209 = CARTESIAN_POINT ( 'NONE',  ( 2.332952152375709200E-015, 77.14414226561778800, -19.05000000000001100 ) ) ;
#210 = DIRECTION ( 'NONE',  ( 0.0000000000000000000, 0.0000000000000000000, 1.000000000000000000 ) ) ;
#211 = ORIENTED_EDGE ( 'NONE', *, *, #59, .T. ) ;
#212 = DIRECTION ( 'NONE',  ( -0.0000000000000000000, 1.000000000000000000, -0.0000000000000000000 ) ) ;
#213 = FILL_AREA_STYLE_COLOUR ( '', #221 ) ;
#214 = DIRECTION ( 'NONE',  ( -0.0000000000000000000, 1.000000000000000000, -0.0000000000000000000 ) ) ;
#215 = ORIENTED_EDGE ( 'NONE', *, *, #3, .F. ) ;
#216 = FACE_OUTER_BOUND ( 'NONE', #129, .T. ) ;
#217 = ORIENTED_EDGE ( 'NONE', *, *, #58, .T. ) ;
#218 = PRODUCT_RELATED_PRODUCT_CATEGORY ( 'part', '', ( #168 ) ) ;
#219 =( GEOMETRIC_REPRESENTATION_CONTEXT ( 3 ) GLOBAL_UNCERTAINTY_ASSIGNED_CONTEXT ( ( #243 ) ) GLOBAL_UNIT_ASSIGNED_CONTEXT ( ( #24, #97, #189 ) ) REPRESENTATION_CONTEXT ( 'NONE', 'WORKASPACE' ) );
#220 = EDGE_LOOP ( 'NONE', ( #230, #217 ) ) ;
#221 = COLOUR_RGB ( '',1.000000000000000000, 1.000000000000000000, 1.000000000000000000 ) ;
#222 = VECTOR ( 'NONE', #164, 1000.000000000000000 ) ;
#223 = ORIENTED_EDGE ( 'NONE', *, *, #96, .F. ) ;
#224 = CYLINDRICAL_SURFACE ( 'NONE', #166, 15.00000000000001100 ) ;
#225 = FILL_AREA_STYLE_COLOUR ( '', #141 ) ;
#226 = ORIENTED_EDGE ( 'NONE', *, *, #82, .F. ) ;
#227 = SHAPE_DEFINITION_REPRESENTATION ( #40, #198 ) ;
#228 = PLANE ( 'NONE',  #21 ) ;
#229 = SURFACE_STYLE_FILL_AREA ( #76 ) ;
#230 = ORIENTED_EDGE ( 'NONE', *, *, #134, .T. ) ;
#231 = AXIS2_PLACEMENT_3D ( 'NONE', #112, #138, #175 ) ;
#232 = DIRECTION ( 'NONE',  ( -0.0000000000000000000, 1.000000000000000000, -0.0000000000000000000 ) ) ;
#233 = PRODUCT_CONTEXT ( 'NONE', #100, 'mechanical' ) ;
#234 =( GEOMETRIC_REPRESENTATION_CONTEXT ( 3 ) GLOBAL_UNCERTAINTY_ASSIGNED_CONTEXT ( ( #202 ) ) GLOBAL_UNIT_ASSIGNED_CONTEXT ( ( #103, #236, #123 ) ) REPRESENTATION_CONTEXT ( 'NONE', 'WORKASPACE' ) );
#235 = PRESENTATION_STYLE_ASSIGNMENT (( #80 ) ) ;
#236 =( NAMED_UNIT ( * ) PLANE_ANGLE_UNIT ( ) SI_UNIT ( $, .RADIAN. ) );
#237 = CARTESIAN_POINT ( 'NONE',  ( 0.0000000000000000000, 0.0000000000000000000, 0.0000000000000000000 ) ) ;
#238 = ORIENTED_EDGE ( 'NONE', *, *, #58, .F. ) ;
#239 = MECHANICAL_DESIGN_GEOMETRIC_PRESENTATION_REPRESENTATION (  '', ( #183 ), #94 ) ;
#240 = FACE_OUTER_BOUND ( 'NONE', #31, .T. ) ;
#241 = CIRCLE ( 'NONE', #231, 15.00000000000001100 ) ;
#242 = AXIS2_PLACEMENT_3D ( 'NONE', #68, #147, #149 ) ;
#243 = UNCERTAINTY_MEASURE_WITH_UNIT (LENGTH_MEASURE( 1.000000000000000100E-005 ), #24, 'distance_accuracy_value', 'NONE');
#244 =( LENGTH_UNIT ( ) NAMED_UNIT ( * ) SI_UNIT ( .MILLI., .METRE. ) );
ENDSEC;
END-ISO-10303-21;
