ISO-10303-21;
HEADER;
FILE_DESCRIPTION (( 'STEP AP214' ),
    '1' );
FILE_NAME ('504005.STEP',
    '2019-09-05T06:06:09',
    ( 'user' ),
    ( 'Î¢ÈíÖÐ¹ú' ),
    'SwSTEP 2.0',
    'SolidWorks 2016',
    '' );
FILE_SCHEMA (( 'AUTOMOTIVE_DESIGN' ));
ENDSEC;

DATA;
#1 = ORIENTED_EDGE ( 'NONE', *, *, #2, .T. ) ;
#2 = EDGE_CURVE ( 'NONE', #199, #149, #24, .T. ) ;
#3 = DIRECTION ( 'NONE',  ( 0.0000000000000000000, -0.0000000000000000000, 1.000000000000000000 ) ) ;
#4 = CARTESIAN_POINT ( 'NONE',  ( 0.0000000000000000000, 0.0000000000000000000, -25.50000000000000000 ) ) ;
#5 = SURFACE_STYLE_USAGE ( .BOTH. , #74 ) ;
#6 = EDGE_LOOP ( 'NONE', ( #49, #80, #1, #125 ) ) ;
#7 = VECTOR ( 'NONE', #134, 1000.000000000000000 ) ;
#8 = EDGE_LOOP ( 'NONE', ( #144, #236 ) ) ;
#9 = SURFACE_SIDE_STYLE ('',( #137 ) ) ;
#10 =( NAMED_UNIT ( * ) PLANE_ANGLE_UNIT ( ) SI_UNIT ( $, .RADIAN. ) );
#11 = CARTESIAN_POINT ( 'NONE',  ( 0.0000000000000000000, 0.0000000000000000000, 0.0000000000000000000 ) ) ;
#12 = PRESENTATION_STYLE_ASSIGNMENT (( #85 ) ) ;
#13 = ORIENTED_EDGE ( 'NONE', *, *, #200, .T. ) ;
#14 = DIRECTION ( 'NONE',  ( 0.0000000000000000000, 0.0000000000000000000, 1.000000000000000000 ) ) ;
#15 =( NAMED_UNIT ( * ) SI_UNIT ( $, .STERADIAN. ) SOLID_ANGLE_UNIT ( ) );
#16 = PRODUCT_DEFINITION ( 'Î´Öª', '', #231, #133 ) ;
#17 = DIRECTION ( 'NONE',  ( 0.0000000000000000000, 0.0000000000000000000, -1.000000000000000000 ) ) ;
#18 = CARTESIAN_POINT ( 'NONE',  ( 0.0000000000000000000, 11.00000000000000000, 0.0000000000000000000 ) ) ;
#19 = EDGE_CURVE ( 'NONE', #83, #21, #173, .T. ) ;
#20 = EDGE_LOOP ( 'NONE', ( #67, #87, #38, #156 ) ) ;
#21 = VERTEX_POINT ( 'NONE', #96 ) ;
#22 =( GEOMETRIC_REPRESENTATION_CONTEXT ( 3 ) GLOBAL_UNCERTAINTY_ASSIGNED_CONTEXT ( ( #191 ) ) GLOBAL_UNIT_ASSIGNED_CONTEXT ( ( #27, #46, #207 ) ) REPRESENTATION_CONTEXT ( 'NONE', 'WORKASPACE' ) );
#23 = ADVANCED_BREP_SHAPE_REPRESENTATION ( '504005', ( #237, #197 ), #57 ) ;
#24 = LINE ( 'NONE', #157, #7 ) ;
#25 =( GEOMETRIC_REPRESENTATION_CONTEXT ( 3 ) GLOBAL_UNCERTAINTY_ASSIGNED_CONTEXT ( ( #94 ) ) GLOBAL_UNIT_ASSIGNED_CONTEXT ( ( #37, #150, #15 ) ) REPRESENTATION_CONTEXT ( 'NONE', 'WORKASPACE' ) );
#26 = CARTESIAN_POINT ( 'NONE',  ( 3.429011037612588900E-015, 0.0000000000000000000, 27.99999999999999600 ) ) ;
#27 =( LENGTH_UNIT ( ) NAMED_UNIT ( * ) SI_UNIT ( .MILLI., .METRE. ) );
#28 = ORIENTED_EDGE ( 'NONE', *, *, #219, .T. ) ;
#29 = DIRECTION ( 'NONE',  ( 0.0000000000000000000, 0.0000000000000000000, 1.000000000000000000 ) ) ;
#30 = SURFACE_STYLE_FILL_AREA ( #66 ) ;
#31 = ORIENTED_EDGE ( 'NONE', *, *, #225, .T. ) ;
#32 = ORIENTED_EDGE ( 'NONE', *, *, #100, .F. ) ;
#33 = AXIS2_PLACEMENT_3D ( 'NONE', #18, #186, #163 ) ;
#34 = PLANE ( 'NONE',  #135 ) ;
#35 = MECHANICAL_DESIGN_GEOMETRIC_PRESENTATION_REPRESENTATION (  '', ( #170 ), #22 ) ;
#36 = DIRECTION ( 'NONE',  ( -0.0000000000000000000, -1.000000000000000000, -0.0000000000000000000 ) ) ;
#37 =( LENGTH_UNIT ( ) NAMED_UNIT ( * ) SI_UNIT ( .MILLI., .METRE. ) );
#38 = ORIENTED_EDGE ( 'NONE', *, *, #219, .F. ) ;
#39 = PRODUCT_DEFINITION_SHAPE ( 'NONE', 'NONE',  #16 ) ;
#40 = DIRECTION ( 'NONE',  ( 0.0000000000000000000, 1.000000000000000000, 0.0000000000000000000 ) ) ;
#41 = EDGE_CURVE ( 'NONE', #232, #21, #115, .T. ) ;
#42 = CIRCLE ( 'NONE', #202, 25.50000000000000000 ) ;
#43 = COLOUR_RGB ( '',1.000000000000000000, 1.000000000000000000, 1.000000000000000000 ) ;
#44 =( GEOMETRIC_REPRESENTATION_CONTEXT ( 3 ) GLOBAL_UNCERTAINTY_ASSIGNED_CONTEXT ( ( #75 ) ) GLOBAL_UNIT_ASSIGNED_CONTEXT ( ( #113, #234, #97 ) ) REPRESENTATION_CONTEXT ( 'NONE', 'WORKASPACE' ) );
#45 = CARTESIAN_POINT ( 'NONE',  ( 0.0000000000000000000, 11.00000000000000000, 0.0000000000000000000 ) ) ;
#46 =( NAMED_UNIT ( * ) PLANE_ANGLE_UNIT ( ) SI_UNIT ( $, .RADIAN. ) );
#47 = PRODUCT_CONTEXT ( 'NONE', #181, 'mechanical' ) ;
#48 = CYLINDRICAL_SURFACE ( 'NONE', #223, 27.99999999999999600 ) ;
#49 = ORIENTED_EDGE ( 'NONE', *, *, #203, .F. ) ;
#50 = EDGE_CURVE ( 'NONE', #199, #127, #171, .T. ) ;
#51 = CARTESIAN_POINT ( 'NONE',  ( 0.0000000000000000000, 0.0000000000000000000, 0.0000000000000000000 ) ) ;
#52 = EDGE_LOOP ( 'NONE', ( #28, #31 ) ) ;
#53 = SURFACE_SIDE_STYLE ('',( #59 ) ) ;
#54 = FILL_AREA_STYLE_COLOUR ( '', #179 ) ;
#55 = DIRECTION ( 'NONE',  ( 0.0000000000000000000, 0.0000000000000000000, 1.000000000000000000 ) ) ;
#56 = VERTEX_POINT ( 'NONE', #216 ) ;
#57 =( GEOMETRIC_REPRESENTATION_CONTEXT ( 3 ) GLOBAL_UNCERTAINTY_ASSIGNED_CONTEXT ( ( #116 ) ) GLOBAL_UNIT_ASSIGNED_CONTEXT ( ( #243, #10, #141 ) ) REPRESENTATION_CONTEXT ( 'NONE', 'WORKASPACE' ) );
#58 = CARTESIAN_POINT ( 'NONE',  ( 0.0000000000000000000, 0.0000000000000000000, 0.0000000000000000000 ) ) ;
#59 = SURFACE_STYLE_FILL_AREA ( #189 ) ;
#60 = AXIS2_PLACEMENT_3D ( 'NONE', #106, #72, #3 ) ;
#61 = ORIENTED_EDGE ( 'NONE', *, *, #19, .F. ) ;
#62 = DIRECTION ( 'NONE',  ( 0.0000000000000000000, 0.0000000000000000000, 1.000000000000000000 ) ) ;
#63 = ADVANCED_FACE ( 'NONE', ( #212 ), #142, .F. ) ;
#64 = DIRECTION ( 'NONE',  ( 0.0000000000000000000, 0.0000000000000000000, 1.000000000000000000 ) ) ;
#65 = DIRECTION ( 'NONE',  ( -0.0000000000000000000, -1.000000000000000000, -0.0000000000000000000 ) ) ;
#66 = FILL_AREA_STYLE ('',( #105 ) ) ;
#67 = ORIENTED_EDGE ( 'NONE', *, *, #50, .T. ) ;
#68 = APPLICATION_PROTOCOL_DEFINITION ( 'draft international standard', 'automotive_design', 1998, #182 ) ;
#69 = SURFACE_STYLE_FILL_AREA ( #129 ) ;
#70 = PRESENTATION_LAYER_ASSIGNMENT (  '', '', ( #143 ) ) ;
#71 = EDGE_CURVE ( 'NONE', #56, #232, #239, .T. ) ;
#72 = DIRECTION ( 'NONE',  ( 0.0000000000000000000, 1.000000000000000000, 0.0000000000000000000 ) ) ;
#73 = DIRECTION ( 'NONE',  ( -0.0000000000000000000, -1.000000000000000000, -0.0000000000000000000 ) ) ;
#74 = SURFACE_SIDE_STYLE ('',( #69 ) ) ;
#75 = UNCERTAINTY_MEASURE_WITH_UNIT (LENGTH_MEASURE( 1.000000000000000100E-005 ), #113, 'distance_accuracy_value', 'NONE');
#76 = DIRECTION ( 'NONE',  ( 0.0000000000000000000, 0.0000000000000000000, -1.000000000000000000 ) ) ;
#77 = CARTESIAN_POINT ( 'NONE',  ( 0.0000000000000000000, 0.0000000000000000000, 0.0000000000000000000 ) ) ;
#78 = MECHANICAL_DESIGN_GEOMETRIC_PRESENTATION_REPRESENTATION (  '', ( #143 ), #25 ) ;
#79 = FACE_OUTER_BOUND ( 'NONE', #8, .T. ) ;
#80 = ORIENTED_EDGE ( 'NONE', *, *, #100, .T. ) ;
#81 =( GEOMETRIC_REPRESENTATION_CONTEXT ( 3 ) GLOBAL_UNCERTAINTY_ASSIGNED_CONTEXT ( ( #108 ) ) GLOBAL_UNIT_ASSIGNED_CONTEXT ( ( #226, #104, #244 ) ) REPRESENTATION_CONTEXT ( 'NONE', 'WORKASPACE' ) );
#82 = CARTESIAN_POINT ( 'NONE',  ( 0.0000000000000000000, 11.00000000000000000, -27.99999999999999600 ) ) ;
#83 = VERTEX_POINT ( 'NONE', #111 ) ;
#84 = ORIENTED_EDGE ( 'NONE', *, *, #71, .T. ) ;
#85 = SURFACE_STYLE_USAGE ( .BOTH. , #208 ) ;
#86 = VECTOR ( 'NONE', #36, 1000.000000000000000 ) ;
#87 = ORIENTED_EDGE ( 'NONE', *, *, #203, .T. ) ;
#88 = STYLED_ITEM ( 'NONE', ( #206 ), #63 ) ;
#89 = AXIS2_PLACEMENT_3D ( 'NONE', #92, #210, #76 ) ;
#90 = PRESENTATION_LAYER_ASSIGNMENT (  '', '', ( #88 ) ) ;
#91 = DIRECTION ( 'NONE',  ( 0.0000000000000000000, -0.0000000000000000000, 1.000000000000000000 ) ) ;
#92 = CARTESIAN_POINT ( 'NONE',  ( 0.0000000000000000000, 11.00000000000000000, 0.0000000000000000000 ) ) ;
#93 = SHAPE_DEFINITION_REPRESENTATION ( #39, #23 ) ;
#94 = UNCERTAINTY_MEASURE_WITH_UNIT (LENGTH_MEASURE( 1.000000000000000100E-005 ), #37, 'distance_accuracy_value', 'NONE');
#95 = DIRECTION ( 'NONE',  ( -0.0000000000000000000, -1.000000000000000000, -0.0000000000000000000 ) ) ;
#96 = CARTESIAN_POINT ( 'NONE',  ( 0.0000000000000000000, 0.0000000000000000000, -27.99999999999999600 ) ) ;
#97 =( NAMED_UNIT ( * ) SI_UNIT ( $, .STERADIAN. ) SOLID_ANGLE_UNIT ( ) );
#98 = AXIS2_PLACEMENT_3D ( 'NONE', #230, #73, #17 ) ;
#99 = ORIENTED_EDGE ( 'NONE', *, *, #204, .F. ) ;
#100 = EDGE_CURVE ( 'NONE', #127, #199, #196, .T. ) ;
#101 = AXIS2_PLACEMENT_3D ( 'NONE', #45, #178, #64 ) ;
#102 = DIRECTION ( 'NONE',  ( 0.0000000000000000000, 1.000000000000000000, 0.0000000000000000000 ) ) ;
#103 = CLOSED_SHELL ( 'NONE', ( #63, #120, #180, #174, #172, #165 ) ) ;
#104 =( NAMED_UNIT ( * ) PLANE_ANGLE_UNIT ( ) SI_UNIT ( $, .RADIAN. ) );
#105 = FILL_AREA_STYLE_COLOUR ( '', #188 ) ;
#106 = CARTESIAN_POINT ( 'NONE',  ( 0.0000000000000000000, 11.00000000000000000, 0.0000000000000000000 ) ) ;
#107 = AXIS2_PLACEMENT_3D ( 'NONE', #166, #40, #151 ) ;
#108 = UNCERTAINTY_MEASURE_WITH_UNIT (LENGTH_MEASURE( 1.000000000000000100E-005 ), #226, 'distance_accuracy_value', 'NONE');
#109 = DIRECTION ( 'NONE',  ( 0.0000000000000000000, 0.0000000000000000000, -1.000000000000000000 ) ) ;
#110 = CARTESIAN_POINT ( 'NONE',  ( 3.122849337825750200E-015, 11.00000000000000000, 25.50000000000000000 ) ) ;
#111 = CARTESIAN_POINT ( 'NONE',  ( 0.0000000000000000000, 11.00000000000000000, -27.99999999999999600 ) ) ;
#112 = ORIENTED_EDGE ( 'NONE', *, *, #71, .F. ) ;
#113 =( LENGTH_UNIT ( ) NAMED_UNIT ( * ) SI_UNIT ( .MILLI., .METRE. ) );
#114 = PRESENTATION_LAYER_ASSIGNMENT (  '', '', ( #170 ) ) ;
#115 = CIRCLE ( 'NONE', #198, 27.99999999999999600 ) ;
#116 = UNCERTAINTY_MEASURE_WITH_UNIT (LENGTH_MEASURE( 1.000000000000000100E-005 ), #243, 'distance_accuracy_value', 'NONE');
#117 = FACE_BOUND ( 'NONE', #52, .T. ) ;
#118 = ORIENTED_EDGE ( 'NONE', *, *, #213, .T. ) ;
#119 = PRESENTATION_LAYER_ASSIGNMENT (  '', '', ( #123 ) ) ;
#120 = ADVANCED_FACE ( 'NONE', ( #162 ), #48, .T. ) ;
#121 = VERTEX_POINT ( 'NONE', #131 ) ;
#122 = DIRECTION ( 'NONE',  ( 0.0000000000000000000, 1.000000000000000000, 0.0000000000000000000 ) ) ;
#123 = STYLED_ITEM ( 'NONE', ( #12 ), #23 ) ;
#124 = FILL_AREA_STYLE ('',( #205 ) ) ;
#125 = ORIENTED_EDGE ( 'NONE', *, *, #225, .F. ) ;
#126 = FACE_BOUND ( 'NONE', #195, .T. ) ;
#127 = VERTEX_POINT ( 'NONE', #110 ) ;
#128 = PLANE ( 'NONE',  #60 ) ;
#129 = FILL_AREA_STYLE ('',( #169 ) ) ;
#130 = ORIENTED_EDGE ( 'NONE', *, *, #41, .T. ) ;
#131 = CARTESIAN_POINT ( 'NONE',  ( 3.122849337825750200E-015, 0.0000000000000000000, 25.50000000000000000 ) ) ;
#132 = ORIENTED_EDGE ( 'NONE', *, *, #50, .F. ) ;
#133 = PRODUCT_DEFINITION_CONTEXT ( 'detailed design', #182, 'design' ) ;
#134 = DIRECTION ( 'NONE',  ( -0.0000000000000000000, -1.000000000000000000, -0.0000000000000000000 ) ) ;
#135 = AXIS2_PLACEMENT_3D ( 'NONE', #58, #187, #91 ) ;
#136 = CIRCLE ( 'NONE', #242, 25.50000000000000000 ) ;
#137 = SURFACE_STYLE_FILL_AREA ( #124 ) ;
#138 = VECTOR ( 'NONE', #152, 1000.000000000000000 ) ;
#139 = DIRECTION ( 'NONE',  ( 0.0000000000000000000, 0.0000000000000000000, 1.000000000000000000 ) ) ;
#140 = SURFACE_STYLE_USAGE ( .BOTH. , #9 ) ;
#141 =( NAMED_UNIT ( * ) SI_UNIT ( $, .STERADIAN. ) SOLID_ANGLE_UNIT ( ) );
#142 = CYLINDRICAL_SURFACE ( 'NONE', #89, 25.50000000000000000 ) ;
#143 = STYLED_ITEM ( 'NONE', ( #201 ), #165 ) ;
#144 = ORIENTED_EDGE ( 'NONE', *, *, #200, .F. ) ;
#145 = CARTESIAN_POINT ( 'NONE',  ( 0.0000000000000000000, 11.00000000000000000, -25.50000000000000000 ) ) ;
#146 = CARTESIAN_POINT ( 'NONE',  ( 3.122849337825750200E-015, 11.00000000000000000, 25.50000000000000000 ) ) ;
#147 = PRODUCT ( '504005', '504005', '', ( #47 ) ) ;
#148 = CIRCLE ( 'NONE', #229, 27.99999999999999600 ) ;
#149 = VERTEX_POINT ( 'NONE', #4 ) ;
#150 =( NAMED_UNIT ( * ) PLANE_ANGLE_UNIT ( ) SI_UNIT ( $, .RADIAN. ) );
#151 = DIRECTION ( 'NONE',  ( 0.0000000000000000000, 0.0000000000000000000, 1.000000000000000000 ) ) ;
#152 = DIRECTION ( 'NONE',  ( -0.0000000000000000000, -1.000000000000000000, -0.0000000000000000000 ) ) ;
#153 = FACE_OUTER_BOUND ( 'NONE', #6, .T. ) ;
#154 = ORIENTED_EDGE ( 'NONE', *, *, #204, .T. ) ;
#155 = MECHANICAL_DESIGN_GEOMETRIC_PRESENTATION_REPRESENTATION (  '', ( #88 ), #44 ) ;
#156 = ORIENTED_EDGE ( 'NONE', *, *, #2, .F. ) ;
#157 = CARTESIAN_POINT ( 'NONE',  ( 0.0000000000000000000, 11.00000000000000000, -25.50000000000000000 ) ) ;
#158 = APPLICATION_PROTOCOL_DEFINITION ( 'draft international standard', 'automotive_design', 1998, #181 ) ;
#159 = DIRECTION ( 'NONE',  ( 1.000000000000000000, 0.0000000000000000000, 0.0000000000000000000 ) ) ;
#160 = VECTOR ( 'NONE', #65, 1000.000000000000000 ) ;
#161 = CYLINDRICAL_SURFACE ( 'NONE', #211, 25.50000000000000000 ) ;
#162 = FACE_OUTER_BOUND ( 'NONE', #183, .T. ) ;
#163 = DIRECTION ( 'NONE',  ( 0.0000000000000000000, 0.0000000000000000000, 1.000000000000000000 ) ) ;
#164 = SURFACE_STYLE_USAGE ( .BOTH. , #53 ) ;
#165 = ADVANCED_FACE ( 'NONE', ( #153 ), #161, .F. ) ;
#166 = CARTESIAN_POINT ( 'NONE',  ( 0.0000000000000000000, 11.00000000000000000, 0.0000000000000000000 ) ) ;
#167 = DIRECTION ( 'NONE',  ( -0.0000000000000000000, -1.000000000000000000, -0.0000000000000000000 ) ) ;
#168 = CARTESIAN_POINT ( 'NONE',  ( 0.0000000000000000000, 0.0000000000000000000, 0.0000000000000000000 ) ) ;
#169 = FILL_AREA_STYLE_COLOUR ( '', #235 ) ;
#170 = STYLED_ITEM ( 'NONE', ( #194 ), #237 ) ;
#171 = CIRCLE ( 'NONE', #33, 25.50000000000000000 ) ;
#172 = ADVANCED_FACE ( 'NONE', ( #221 ), #222, .T. ) ;
#173 = LINE ( 'NONE', #82, #160 ) ;
#174 = ADVANCED_FACE ( 'NONE', ( #79, #117 ), #34, .F. ) ;
#175 = ORIENTED_EDGE ( 'NONE', *, *, #19, .T. ) ;
#176 = FACE_OUTER_BOUND ( 'NONE', #218, .T. ) ;
#177 = AXIS2_PLACEMENT_3D ( 'NONE', #240, #122, #139 ) ;
#178 = DIRECTION ( 'NONE',  ( 0.0000000000000000000, 1.000000000000000000, 0.0000000000000000000 ) ) ;
#179 = COLOUR_RGB ( '',1.000000000000000000, 1.000000000000000000, 1.000000000000000000 ) ;
#180 = ADVANCED_FACE ( 'NONE', ( #176, #126 ), #128, .T. ) ;
#181 = APPLICATION_CONTEXT ( 'automotive_design' ) ;
#182 = APPLICATION_CONTEXT ( 'automotive_design' ) ;
#183 = EDGE_LOOP ( 'NONE', ( #99, #84, #130, #61 ) ) ;
#184 = CIRCLE ( 'NONE', #101, 27.99999999999999600 ) ;
#185 = DIRECTION ( 'NONE',  ( 0.0000000000000000000, 1.000000000000000000, 0.0000000000000000000 ) ) ;
#186 = DIRECTION ( 'NONE',  ( 0.0000000000000000000, 1.000000000000000000, 0.0000000000000000000 ) ) ;
#187 = DIRECTION ( 'NONE',  ( 0.0000000000000000000, 1.000000000000000000, 0.0000000000000000000 ) ) ;
#188 = COLOUR_RGB ( '',1.000000000000000000, 1.000000000000000000, 1.000000000000000000 ) ;
#189 = FILL_AREA_STYLE ('',( #54 ) ) ;
#190 = DIRECTION ( 'NONE',  ( 0.0000000000000000000, 0.0000000000000000000, -1.000000000000000000 ) ) ;
#191 = UNCERTAINTY_MEASURE_WITH_UNIT (LENGTH_MEASURE( 1.000000000000000100E-005 ), #27, 'distance_accuracy_value', 'NONE');
#192 = CARTESIAN_POINT ( 'NONE',  ( 3.429011037612588900E-015, 11.00000000000000000, 27.99999999999999600 ) ) ;
#193 = DIRECTION ( 'NONE',  ( 0.0000000000000000000, 1.000000000000000000, 0.0000000000000000000 ) ) ;
#194 = PRESENTATION_STYLE_ASSIGNMENT (( #140 ) ) ;
#195 = EDGE_LOOP ( 'NONE', ( #132, #32 ) ) ;
#196 = CIRCLE ( 'NONE', #107, 25.50000000000000000 ) ;
#197 = AXIS2_PLACEMENT_3D ( 'NONE', #11, #29, #159 ) ;
#198 = AXIS2_PLACEMENT_3D ( 'NONE', #77, #193, #55 ) ;
#199 = VERTEX_POINT ( 'NONE', #145 ) ;
#200 = EDGE_CURVE ( 'NONE', #21, #232, #148, .T. ) ;
#201 = PRESENTATION_STYLE_ASSIGNMENT (( #164 ) ) ;
#202 = AXIS2_PLACEMENT_3D ( 'NONE', #168, #185, #14 ) ;
#203 = EDGE_CURVE ( 'NONE', #127, #121, #238, .T. ) ;
#204 = EDGE_CURVE ( 'NONE', #56, #83, #227, .T. ) ;
#205 = FILL_AREA_STYLE_COLOUR ( '', #43 ) ;
#206 = PRESENTATION_STYLE_ASSIGNMENT (( #5 ) ) ;
#207 =( NAMED_UNIT ( * ) SI_UNIT ( $, .STERADIAN. ) SOLID_ANGLE_UNIT ( ) );
#208 = SURFACE_SIDE_STYLE ('',( #30 ) ) ;
#209 = ORIENTED_EDGE ( 'NONE', *, *, #213, .F. ) ;
#210 = DIRECTION ( 'NONE',  ( -0.0000000000000000000, -1.000000000000000000, -0.0000000000000000000 ) ) ;
#211 = AXIS2_PLACEMENT_3D ( 'NONE', #214, #95, #109 ) ;
#212 = FACE_OUTER_BOUND ( 'NONE', #20, .T. ) ;
#213 = EDGE_CURVE ( 'NONE', #83, #56, #184, .T. ) ;
#214 = CARTESIAN_POINT ( 'NONE',  ( 0.0000000000000000000, 11.00000000000000000, 0.0000000000000000000 ) ) ;
#215 = CARTESIAN_POINT ( 'NONE',  ( 0.0000000000000000000, 11.00000000000000000, 0.0000000000000000000 ) ) ;
#216 = CARTESIAN_POINT ( 'NONE',  ( 3.429011037612588900E-015, 11.00000000000000000, 27.99999999999999600 ) ) ;
#217 = MECHANICAL_DESIGN_GEOMETRIC_PRESENTATION_REPRESENTATION (  '', ( #123 ), #81 ) ;
#218 = EDGE_LOOP ( 'NONE', ( #118, #154 ) ) ;
#219 = EDGE_CURVE ( 'NONE', #149, #121, #42, .T. ) ;
#220 = PRODUCT_RELATED_PRODUCT_CATEGORY ( 'part', '', ( #147 ) ) ;
#221 = FACE_OUTER_BOUND ( 'NONE', #233, .T. ) ;
#222 = CYLINDRICAL_SURFACE ( 'NONE', #98, 27.99999999999999600 ) ;
#223 = AXIS2_PLACEMENT_3D ( 'NONE', #215, #167, #190 ) ;
#224 = CARTESIAN_POINT ( 'NONE',  ( 0.0000000000000000000, 0.0000000000000000000, 0.0000000000000000000 ) ) ;
#225 = EDGE_CURVE ( 'NONE', #121, #149, #136, .T. ) ;
#226 =( LENGTH_UNIT ( ) NAMED_UNIT ( * ) SI_UNIT ( .MILLI., .METRE. ) );
#227 = CIRCLE ( 'NONE', #177, 27.99999999999999600 ) ;
#228 = DIRECTION ( 'NONE',  ( 0.0000000000000000000, 1.000000000000000000, 0.0000000000000000000 ) ) ;
#229 = AXIS2_PLACEMENT_3D ( 'NONE', #51, #228, #62 ) ;
#230 = CARTESIAN_POINT ( 'NONE',  ( 0.0000000000000000000, 11.00000000000000000, 0.0000000000000000000 ) ) ;
#231 = PRODUCT_DEFINITION_FORMATION_WITH_SPECIFIED_SOURCE ( 'ÈÎºÎ', '', #147, .NOT_KNOWN. ) ;
#232 = VERTEX_POINT ( 'NONE', #26 ) ;
#233 = EDGE_LOOP ( 'NONE', ( #112, #209, #175, #13 ) ) ;
#234 =( NAMED_UNIT ( * ) PLANE_ANGLE_UNIT ( ) SI_UNIT ( $, .RADIAN. ) );
#235 = COLOUR_RGB ( '',1.000000000000000000, 1.000000000000000000, 1.000000000000000000 ) ;
#236 = ORIENTED_EDGE ( 'NONE', *, *, #41, .F. ) ;
#237 = MANIFOLD_SOLID_BREP ( 'Í¹Ì¨-À­Éì1', #103 ) ;
#238 = LINE ( 'NONE', #146, #86 ) ;
#239 = LINE ( 'NONE', #192, #138 ) ;
#240 = CARTESIAN_POINT ( 'NONE',  ( 0.0000000000000000000, 11.00000000000000000, 0.0000000000000000000 ) ) ;
#241 = DIRECTION ( 'NONE',  ( 0.0000000000000000000, 0.0000000000000000000, 1.000000000000000000 ) ) ;
#242 = AXIS2_PLACEMENT_3D ( 'NONE', #224, #102, #241 ) ;
#243 =( LENGTH_UNIT ( ) NAMED_UNIT ( * ) SI_UNIT ( .MILLI., .METRE. ) );
#244 =( NAMED_UNIT ( * ) SI_UNIT ( $, .STERADIAN. ) SOLID_ANGLE_UNIT ( ) );
ENDSEC;
END-ISO-10303-21;
