ISO-10303-21;
HEADER;
FILE_DESCRIPTION (( 'STEP AP214' ),
    '1' );
FILE_NAME ('503009.STEP',
    '2019-09-04T06:27:55',
    ( '' ),
    ( '' ),
    'SwSTEP 2.0',
    'SolidWorks 2016',
    '' );
FILE_SCHEMA (( 'AUTOMOTIVE_DESIGN' ));
ENDSEC;

DATA;
#1 = CIRCLE ( 'NONE', #85, 28.00000000000002100 ) ;
#2 = COLOUR_RGB ( '',1.000000000000000000, 1.000000000000000000, 1.000000000000000000 ) ;
#3 =( LENGTH_UNIT ( ) NAMED_UNIT ( * ) SI_UNIT ( .MILLI., .METRE. ) );
#4 = UNCERTAINTY_MEASURE_WITH_UNIT (LENGTH_MEASURE( 1.000000000000000100E-005 ), #203, 'distance_accuracy_value', 'NONE');
#5 = DIRECTION ( 'NONE',  ( -0.0000000000000000000, 1.000000000000000000, -0.0000000000000000000 ) ) ;
#6 = CARTESIAN_POINT ( 'NONE',  ( 0.0000000000000000000, 161.3761669434274500, 0.0000000000000000000 ) ) ;
#7 =( NAMED_UNIT ( * ) SI_UNIT ( $, .STERADIAN. ) SOLID_ANGLE_UNIT ( ) );
#8 = VERTEX_POINT ( 'NONE', #75 ) ;
#9 = CARTESIAN_POINT ( 'NONE',  ( 3.429011037612591600E-015, 161.3761669434274500, -28.00000000000002100 ) ) ;
#10 = PRODUCT_DEFINITION_SHAPE ( 'NONE', 'NONE',  #187 ) ;
#11 = ORIENTED_EDGE ( 'NONE', *, *, #105, .F. ) ;
#12 = DIRECTION ( 'NONE',  ( 0.0000000000000000000, 0.0000000000000000000, 1.000000000000000000 ) ) ;
#13 =( LENGTH_UNIT ( ) NAMED_UNIT ( * ) SI_UNIT ( .MILLI., .METRE. ) );
#14 = EDGE_CURVE ( 'NONE', #8, #209, #81, .T. ) ;
#15 = AXIS2_PLACEMENT_3D ( 'NONE', #108, #50, #128 ) ;
#16 = SURFACE_STYLE_FILL_AREA ( #96 ) ;
#17 = UNCERTAINTY_MEASURE_WITH_UNIT (LENGTH_MEASURE( 1.000000000000000100E-005 ), #13, 'distance_accuracy_value', 'NONE');
#18 = EDGE_LOOP ( 'NONE', ( #115, #173 ) ) ;
#19 = DIRECTION ( 'NONE',  ( 0.0000000000000000000, 0.0000000000000000000, 1.000000000000000000 ) ) ;
#20 =( NAMED_UNIT ( * ) SI_UNIT ( $, .STERADIAN. ) SOLID_ANGLE_UNIT ( ) );
#21 = DIRECTION ( 'NONE',  ( 0.0000000000000000000, 0.0000000000000000000, 1.000000000000000000 ) ) ;
#22 = EDGE_CURVE ( 'NONE', #145, #32, #71, .T. ) ;
#23 = CARTESIAN_POINT ( 'NONE',  ( 0.0000000000000000000, 161.3761669434274500, 0.0000000000000000000 ) ) ;
#24 = PRESENTATION_LAYER_ASSIGNMENT (  '', '', ( #154 ) ) ;
#25 = DIRECTION ( 'NONE',  ( -0.0000000000000000000, 1.000000000000000000, -0.0000000000000000000 ) ) ;
#26 = ORIENTED_EDGE ( 'NONE', *, *, #208, .T. ) ;
#27 = EDGE_LOOP ( 'NONE', ( #101, #189, #26, #227 ) ) ;
#28 = CARTESIAN_POINT ( 'NONE',  ( 3.429011037612591600E-015, 25.39999999999997700, -28.00000000000002100 ) ) ;
#29 = PLANE ( 'NONE',  #100 ) ;
#30 = APPLICATION_CONTEXT ( 'automotive_design' ) ;
#31 = ORIENTED_EDGE ( 'NONE', *, *, #98, .F. ) ;
#32 = VERTEX_POINT ( 'NONE', #164 ) ;
#33 = AXIS2_PLACEMENT_3D ( 'NONE', #95, #231, #193 ) ;
#34 = AXIS2_PLACEMENT_3D ( 'NONE', #23, #213, #179 ) ;
#35 =( GEOMETRIC_REPRESENTATION_CONTEXT ( 3 ) GLOBAL_UNCERTAINTY_ASSIGNED_CONTEXT ( ( #17 ) ) GLOBAL_UNIT_ASSIGNED_CONTEXT ( ( #13, #103, #236 ) ) REPRESENTATION_CONTEXT ( 'NONE', 'WORKASPACE' ) );
#36 = EDGE_LOOP ( 'NONE', ( #224, #194 ) ) ;
#37 = SURFACE_STYLE_FILL_AREA ( #65 ) ;
#38 = FACE_BOUND ( 'NONE', #133, .T. ) ;
#39 = SURFACE_STYLE_USAGE ( .BOTH. , #235 ) ;
#40 = ORIENTED_EDGE ( 'NONE', *, *, #242, .T. ) ;
#41 = FILL_AREA_STYLE ('',( #166 ) ) ;
#42 = DIRECTION ( 'NONE',  ( -0.0000000000000000000, 1.000000000000000000, -0.0000000000000000000 ) ) ;
#43 = FACE_BOUND ( 'NONE', #18, .T. ) ;
#44 = ORIENTED_EDGE ( 'NONE', *, *, #112, .T. ) ;
#45 = DIRECTION ( 'NONE',  ( -0.0000000000000000000, 1.000000000000000000, -0.0000000000000000000 ) ) ;
#46 =( LENGTH_UNIT ( ) NAMED_UNIT ( * ) SI_UNIT ( .MILLI., .METRE. ) );
#47 = FILL_AREA_STYLE_COLOUR ( '', #233 ) ;
#48 = CIRCLE ( 'NONE', #161, 28.00000000000002100 ) ;
#49 = CARTESIAN_POINT ( 'NONE',  ( 3.122849337825752600E-015, -2.775557561562891400E-014, -25.50000000000001400 ) ) ;
#50 = DIRECTION ( 'NONE',  ( -0.0000000000000000000, 1.000000000000000000, -0.0000000000000000000 ) ) ;
#51 = PRESENTATION_LAYER_ASSIGNMENT (  '', '', ( #135 ) ) ;
#52 = AXIS2_PLACEMENT_3D ( 'NONE', #170, #12, #126 ) ;
#53 = CIRCLE ( 'NONE', #15, 28.00000000000002100 ) ;
#54 = SURFACE_STYLE_FILL_AREA ( #41 ) ;
#55 = VECTOR ( 'NONE', #201, 1000.000000000000000 ) ;
#56 = VERTEX_POINT ( 'NONE', #57 ) ;
#57 = CARTESIAN_POINT ( 'NONE',  ( 3.429011037612591600E-015, -2.775557561562891400E-014, -28.00000000000002100 ) ) ;
#58 = DIRECTION ( 'NONE',  ( 0.0000000000000000000, 0.0000000000000000000, 1.000000000000000000 ) ) ;
#59 = SURFACE_SIDE_STYLE ('',( #54 ) ) ;
#60 =( GEOMETRIC_REPRESENTATION_CONTEXT ( 3 ) GLOBAL_UNCERTAINTY_ASSIGNED_CONTEXT ( ( #175 ) ) GLOBAL_UNIT_ASSIGNED_CONTEXT ( ( #46, #182, #62 ) ) REPRESENTATION_CONTEXT ( 'NONE', 'WORKASPACE' ) );
#61 = PRODUCT_RELATED_PRODUCT_CATEGORY ( 'part', '', ( #67 ) ) ;
#62 =( NAMED_UNIT ( * ) SI_UNIT ( $, .STERADIAN. ) SOLID_ANGLE_UNIT ( ) );
#63 = ADVANCED_FACE ( 'NONE', ( #190, #38 ), #92, .F. ) ;
#64 = VECTOR ( 'NONE', #25, 1000.000000000000000 ) ;
#65 = FILL_AREA_STYLE ('',( #47 ) ) ;
#66 = CARTESIAN_POINT ( 'NONE',  ( 25.50000000000001100, 25.39999999999998400, 0.0000000000000000000 ) ) ;
#67 = PRODUCT ( '503009', '503009', '', ( #204 ) ) ;
#68 = DIRECTION ( 'NONE',  ( 0.0000000000000000000, -1.000000000000000000, 0.0000000000000000000 ) ) ;
#69 = CARTESIAN_POINT ( 'NONE',  ( 3.122849337825752200E-015, 25.39999999999997700, -25.50000000000001100 ) ) ;
#70 = CIRCLE ( 'NONE', #243, 25.50000000000001400 ) ;
#71 = CIRCLE ( 'NONE', #88, 25.50000000000001100 ) ;
#72 = UNCERTAINTY_MEASURE_WITH_UNIT (LENGTH_MEASURE( 1.000000000000000100E-005 ), #99, 'distance_accuracy_value', 'NONE');
#73 = AXIS2_PLACEMENT_3D ( 'NONE', #240, #185, #149 ) ;
#74 = PRESENTATION_STYLE_ASSIGNMENT (( #219 ) ) ;
#75 = CARTESIAN_POINT ( 'NONE',  ( 0.0000000000000000000, -2.775557561562891400E-014, 25.50000000000001400 ) ) ;
#76 = ADVANCED_FACE ( 'NONE', ( #199 ), #205, .F. ) ;
#77 = DIRECTION ( 'NONE',  ( -0.0000000000000000000, 1.000000000000000000, -0.0000000000000000000 ) ) ;
#78 = CARTESIAN_POINT ( 'NONE',  ( 0.0000000000000000000, -2.775557561562891400E-014, 0.0000000000000000000 ) ) ;
#79 = SURFACE_STYLE_USAGE ( .BOTH. , #59 ) ;
#80 = EDGE_LOOP ( 'NONE', ( #237, #40, #84, #244 ) ) ;
#81 = CIRCLE ( 'NONE', #33, 25.50000000000001400 ) ;
#82 = PRODUCT_DEFINITION_CONTEXT ( 'detailed design', #30, 'design' ) ;
#83 = CARTESIAN_POINT ( 'NONE',  ( 0.0000000000000000000, 25.39999999999997700, 0.0000000000000000000 ) ) ;
#84 = ORIENTED_EDGE ( 'NONE', *, *, #22, .T. ) ;
#85 = AXIS2_PLACEMENT_3D ( 'NONE', #83, #109, #125 ) ;
#86 = LINE ( 'NONE', #9, #64 ) ;
#87 = ORIENTED_EDGE ( 'NONE', *, *, #120, .T. ) ;
#88 = AXIS2_PLACEMENT_3D ( 'NONE', #210, #122, #19 ) ;
#89 = ORIENTED_EDGE ( 'NONE', *, *, #134, .T. ) ;
#90 = ADVANCED_BREP_SHAPE_REPRESENTATION ( '503009', ( #114, #52 ), #131 ) ;
#91 = ADVANCED_FACE ( 'NONE', ( #234 ), #102, .T. ) ;
#92 = PLANE ( 'NONE',  #147 ) ;
#93 = FILL_AREA_STYLE ('',( #143 ) ) ;
#94 = ADVANCED_FACE ( 'NONE', ( #157 ), #174, .F. ) ;
#95 = CARTESIAN_POINT ( 'NONE',  ( 0.0000000000000000000, -2.775557561562891400E-014, 0.0000000000000000000 ) ) ;
#96 = FILL_AREA_STYLE ('',( #169 ) ) ;
#97 = DIRECTION ( 'NONE',  ( 0.0000000000000000000, 0.0000000000000000000, 1.000000000000000000 ) ) ;
#98 = EDGE_CURVE ( 'NONE', #225, #56, #116, .T. ) ;
#99 =( LENGTH_UNIT ( ) NAMED_UNIT ( * ) SI_UNIT ( .MILLI., .METRE. ) );
#100 = AXIS2_PLACEMENT_3D ( 'NONE', #66, #68, #239 ) ;
#101 = ORIENTED_EDGE ( 'NONE', *, *, #242, .F. ) ;
#102 = CYLINDRICAL_SURFACE ( 'NONE', #153, 28.00000000000002100 ) ;
#103 =( NAMED_UNIT ( * ) PLANE_ANGLE_UNIT ( ) SI_UNIT ( $, .RADIAN. ) );
#104 = CARTESIAN_POINT ( 'NONE',  ( 0.0000000000000000000, 161.3761669434274500, 25.50000000000001400 ) ) ;
#105 = EDGE_CURVE ( 'NONE', #56, #158, #86, .T. ) ;
#106 = APPLICATION_PROTOCOL_DEFINITION ( 'draft international standard', 'automotive_design', 1998, #30 ) ;
#107 = STYLED_ITEM ( 'NONE', ( #184 ), #76 ) ;
#108 = CARTESIAN_POINT ( 'NONE',  ( 0.0000000000000000000, 25.39999999999997700, 0.0000000000000000000 ) ) ;
#109 = DIRECTION ( 'NONE',  ( -0.0000000000000000000, 1.000000000000000000, -0.0000000000000000000 ) ) ;
#110 = EDGE_LOOP ( 'NONE', ( #31, #162 ) ) ;
#111 = CIRCLE ( 'NONE', #186, 25.50000000000001100 ) ;
#112 = EDGE_CURVE ( 'NONE', #56, #225, #48, .T. ) ;
#113 = STYLED_ITEM ( 'NONE', ( #160 ), #94 ) ;
#114 = MANIFOLD_SOLID_BREP ( 'Ðý×ª1', #123 ) ;
#115 = ORIENTED_EDGE ( 'NONE', *, *, #129, .F. ) ;
#116 = CIRCLE ( 'NONE', #196, 28.00000000000002100 ) ;
#117 = CARTESIAN_POINT ( 'NONE',  ( 0.0000000000000000000, 161.3761669434274500, 0.0000000000000000000 ) ) ;
#118 = SURFACE_STYLE_USAGE ( .BOTH. , #139 ) ;
#119 = UNCERTAINTY_MEASURE_WITH_UNIT (LENGTH_MEASURE( 1.000000000000000100E-005 ), #3, 'distance_accuracy_value', 'NONE');
#120 = EDGE_CURVE ( 'NONE', #209, #8, #70, .T. ) ;
#121 = CARTESIAN_POINT ( 'NONE',  ( 0.0000000000000000000, -2.775557561562891400E-014, 0.0000000000000000000 ) ) ;
#122 = DIRECTION ( 'NONE',  ( -0.0000000000000000000, 1.000000000000000000, -0.0000000000000000000 ) ) ;
#123 = CLOSED_SHELL ( 'NONE', ( #94, #91, #63, #142, #200, #76 ) ) ;
#124 =( NAMED_UNIT ( * ) PLANE_ANGLE_UNIT ( ) SI_UNIT ( $, .RADIAN. ) );
#125 = DIRECTION ( 'NONE',  ( 0.0000000000000000000, 0.0000000000000000000, 1.000000000000000000 ) ) ;
#126 = DIRECTION ( 'NONE',  ( 1.000000000000000000, 0.0000000000000000000, 0.0000000000000000000 ) ) ;
#127 = CYLINDRICAL_SURFACE ( 'NONE', #73, 28.00000000000002100 ) ;
#128 = DIRECTION ( 'NONE',  ( 0.0000000000000000000, 0.0000000000000000000, 1.000000000000000000 ) ) ;
#129 = EDGE_CURVE ( 'NONE', #32, #145, #111, .T. ) ;
#130 = CARTESIAN_POINT ( 'NONE',  ( 3.122849337825752600E-015, 161.3761669434274500, -25.50000000000001400 ) ) ;
#131 =( GEOMETRIC_REPRESENTATION_CONTEXT ( 3 ) GLOBAL_UNCERTAINTY_ASSIGNED_CONTEXT ( ( #4 ) ) GLOBAL_UNIT_ASSIGNED_CONTEXT ( ( #203, #156, #155 ) ) REPRESENTATION_CONTEXT ( 'NONE', 'WORKASPACE' ) );
#132 = VECTOR ( 'NONE', #222, 1000.000000000000000 ) ;
#133 = EDGE_LOOP ( 'NONE', ( #181, #87 ) ) ;
#134 = EDGE_CURVE ( 'NONE', #225, #177, #137, .T. ) ;
#135 = STYLED_ITEM ( 'NONE', ( #159 ), #114 ) ;
#136 = EDGE_LOOP ( 'NONE', ( #223, #141, #216, #138 ) ) ;
#137 = LINE ( 'NONE', #214, #55 ) ;
#138 = ORIENTED_EDGE ( 'NONE', *, *, #134, .F. ) ;
#139 = SURFACE_SIDE_STYLE ('',( #228 ) ) ;
#140 =( NAMED_UNIT ( * ) PLANE_ANGLE_UNIT ( ) SI_UNIT ( $, .RADIAN. ) );
#141 = ORIENTED_EDGE ( 'NONE', *, *, #105, .T. ) ;
#142 = ADVANCED_FACE ( 'NONE', ( #212 ), #127, .T. ) ;
#143 = FILL_AREA_STYLE_COLOUR ( '', #2 ) ;
#144 = CARTESIAN_POINT ( 'NONE',  ( 0.0000000000000000000, -2.775557561562891400E-014, 0.0000000000000000000 ) ) ;
#145 = VERTEX_POINT ( 'NONE', #69 ) ;
#146 = COLOUR_RGB ( '',1.000000000000000000, 1.000000000000000000, 1.000000000000000000 ) ;
#147 = AXIS2_PLACEMENT_3D ( 'NONE', #211, #178, #58 ) ;
#148 = DIRECTION ( 'NONE',  ( -0.0000000000000000000, 1.000000000000000000, -0.0000000000000000000 ) ) ;
#149 = DIRECTION ( 'NONE',  ( 0.0000000000000000000, 0.0000000000000000000, 1.000000000000000000 ) ) ;
#150 = APPLICATION_CONTEXT ( 'automotive_design' ) ;
#151 = EDGE_CURVE ( 'NONE', #177, #158, #53, .T. ) ;
#152 = DIRECTION ( 'NONE',  ( -0.0000000000000000000, 1.000000000000000000, -0.0000000000000000000 ) ) ;
#153 = AXIS2_PLACEMENT_3D ( 'NONE', #6, #168, #198 ) ;
#154 = STYLED_ITEM ( 'NONE', ( #74 ), #90 ) ;
#155 =( NAMED_UNIT ( * ) SI_UNIT ( $, .STERADIAN. ) SOLID_ANGLE_UNIT ( ) );
#156 =( NAMED_UNIT ( * ) PLANE_ANGLE_UNIT ( ) SI_UNIT ( $, .RADIAN. ) );
#157 = FACE_OUTER_BOUND ( 'NONE', #80, .T. ) ;
#158 = VERTEX_POINT ( 'NONE', #28 ) ;
#159 = PRESENTATION_STYLE_ASSIGNMENT (( #39 ) ) ;
#160 = PRESENTATION_STYLE_ASSIGNMENT (( #79 ) ) ;
#161 = AXIS2_PLACEMENT_3D ( 'NONE', #144, #45, #21 ) ;
#162 = ORIENTED_EDGE ( 'NONE', *, *, #112, .F. ) ;
#163 = SHAPE_DEFINITION_REPRESENTATION ( #10, #90 ) ;
#164 = CARTESIAN_POINT ( 'NONE',  ( 0.0000000000000000000, 25.39999999999997700, 25.50000000000001100 ) ) ;
#165 = PRESENTATION_LAYER_ASSIGNMENT (  '', '', ( #113 ) ) ;
#166 = FILL_AREA_STYLE_COLOUR ( '', #218 ) ;
#167 = CARTESIAN_POINT ( 'NONE',  ( 0.0000000000000000000, 25.39999999999997700, 0.0000000000000000000 ) ) ;
#168 = DIRECTION ( 'NONE',  ( -0.0000000000000000000, 1.000000000000000000, -0.0000000000000000000 ) ) ;
#169 = FILL_AREA_STYLE_COLOUR ( '', #146 ) ;
#170 = CARTESIAN_POINT ( 'NONE',  ( 0.0000000000000000000, 0.0000000000000000000, 0.0000000000000000000 ) ) ;
#171 = LINE ( 'NONE', #104, #132 ) ;
#172 = MECHANICAL_DESIGN_GEOMETRIC_PRESENTATION_REPRESENTATION (  '', ( #113 ), #215 ) ;
#173 = ORIENTED_EDGE ( 'NONE', *, *, #22, .F. ) ;
#174 = CYLINDRICAL_SURFACE ( 'NONE', #34, 25.50000000000001400 ) ;
#175 = UNCERTAINTY_MEASURE_WITH_UNIT (LENGTH_MEASURE( 1.000000000000000100E-005 ), #46, 'distance_accuracy_value', 'NONE');
#176 = AXIS2_PLACEMENT_3D ( 'NONE', #117, #77, #229 ) ;
#177 = VERTEX_POINT ( 'NONE', #188 ) ;
#178 = DIRECTION ( 'NONE',  ( -0.0000000000000000000, 1.000000000000000000, 0.0000000000000000000 ) ) ;
#179 = DIRECTION ( 'NONE',  ( 0.0000000000000000000, 0.0000000000000000000, 1.000000000000000000 ) ) ;
#180 = PRESENTATION_LAYER_ASSIGNMENT (  '', '', ( #107 ) ) ;
#181 = ORIENTED_EDGE ( 'NONE', *, *, #14, .T. ) ;
#182 =( NAMED_UNIT ( * ) PLANE_ANGLE_UNIT ( ) SI_UNIT ( $, .RADIAN. ) );
#183 = CARTESIAN_POINT ( 'NONE',  ( 0.0000000000000000000, -2.775557561562891400E-014, 28.00000000000002100 ) ) ;
#184 = PRESENTATION_STYLE_ASSIGNMENT (( #118 ) ) ;
#185 = DIRECTION ( 'NONE',  ( -0.0000000000000000000, 1.000000000000000000, -0.0000000000000000000 ) ) ;
#186 = AXIS2_PLACEMENT_3D ( 'NONE', #167, #42, #220 ) ;
#187 = PRODUCT_DEFINITION ( 'Î´Öª', '', #197, #82 ) ;
#188 = CARTESIAN_POINT ( 'NONE',  ( 0.0000000000000000000, 25.39999999999997700, 28.00000000000002100 ) ) ;
#189 = ORIENTED_EDGE ( 'NONE', *, *, #14, .F. ) ;
#190 = FACE_OUTER_BOUND ( 'NONE', #110, .T. ) ;
#191 = MECHANICAL_DESIGN_GEOMETRIC_PRESENTATION_REPRESENTATION (  '', ( #154 ), #35 ) ;
#192 = ORIENTED_EDGE ( 'NONE', *, *, #230, .F. ) ;
#193 = DIRECTION ( 'NONE',  ( 0.0000000000000000000, 0.0000000000000000000, 1.000000000000000000 ) ) ;
#194 = ORIENTED_EDGE ( 'NONE', *, *, #230, .T. ) ;
#195 = DIRECTION ( 'NONE',  ( 0.0000000000000000000, 0.0000000000000000000, 1.000000000000000000 ) ) ;
#196 = AXIS2_PLACEMENT_3D ( 'NONE', #78, #148, #195 ) ;
#197 = PRODUCT_DEFINITION_FORMATION_WITH_SPECIFIED_SOURCE ( 'ÈÎºÎ', '', #67, .NOT_KNOWN. ) ;
#198 = DIRECTION ( 'NONE',  ( 0.0000000000000000000, 0.0000000000000000000, 1.000000000000000000 ) ) ;
#199 = FACE_OUTER_BOUND ( 'NONE', #27, .T. ) ;
#200 = ADVANCED_FACE ( 'NONE', ( #43, #226 ), #29, .F. ) ;
#201 = DIRECTION ( 'NONE',  ( -0.0000000000000000000, 1.000000000000000000, -0.0000000000000000000 ) ) ;
#202 = APPLICATION_PROTOCOL_DEFINITION ( 'draft international standard', 'automotive_design', 1998, #150 ) ;
#203 =( LENGTH_UNIT ( ) NAMED_UNIT ( * ) SI_UNIT ( .MILLI., .METRE. ) );
#204 = PRODUCT_CONTEXT ( 'NONE', #150, 'mechanical' ) ;
#205 = CYLINDRICAL_SURFACE ( 'NONE', #176, 25.50000000000001400 ) ;
#206 = MECHANICAL_DESIGN_GEOMETRIC_PRESENTATION_REPRESENTATION (  '', ( #107 ), #221 ) ;
#207 = EDGE_LOOP ( 'NONE', ( #11, #44, #89, #192 ) ) ;
#208 = EDGE_CURVE ( 'NONE', #8, #32, #171, .T. ) ;
#209 = VERTEX_POINT ( 'NONE', #49 ) ;
#210 = CARTESIAN_POINT ( 'NONE',  ( 0.0000000000000000000, 25.39999999999997700, 0.0000000000000000000 ) ) ;
#211 = CARTESIAN_POINT ( 'NONE',  ( 25.50000000000001400, -1.390324872067691800E-014, 0.0000000000000000000 ) ) ;
#212 = FACE_OUTER_BOUND ( 'NONE', #207, .T. ) ;
#213 = DIRECTION ( 'NONE',  ( -0.0000000000000000000, 1.000000000000000000, -0.0000000000000000000 ) ) ;
#214 = CARTESIAN_POINT ( 'NONE',  ( 0.0000000000000000000, 161.3761669434274500, 28.00000000000002100 ) ) ;
#215 =( GEOMETRIC_REPRESENTATION_CONTEXT ( 3 ) GLOBAL_UNCERTAINTY_ASSIGNED_CONTEXT ( ( #72 ) ) GLOBAL_UNIT_ASSIGNED_CONTEXT ( ( #99, #124, #7 ) ) REPRESENTATION_CONTEXT ( 'NONE', 'WORKASPACE' ) );
#216 = ORIENTED_EDGE ( 'NONE', *, *, #151, .F. ) ;
#217 = LINE ( 'NONE', #130, #241 ) ;
#218 = COLOUR_RGB ( '',1.000000000000000000, 1.000000000000000000, 1.000000000000000000 ) ;
#219 = SURFACE_STYLE_USAGE ( .BOTH. , #238 ) ;
#220 = DIRECTION ( 'NONE',  ( 0.0000000000000000000, 0.0000000000000000000, 1.000000000000000000 ) ) ;
#221 =( GEOMETRIC_REPRESENTATION_CONTEXT ( 3 ) GLOBAL_UNCERTAINTY_ASSIGNED_CONTEXT ( ( #119 ) ) GLOBAL_UNIT_ASSIGNED_CONTEXT ( ( #3, #140, #20 ) ) REPRESENTATION_CONTEXT ( 'NONE', 'WORKASPACE' ) );
#222 = DIRECTION ( 'NONE',  ( -0.0000000000000000000, 1.000000000000000000, -0.0000000000000000000 ) ) ;
#223 = ORIENTED_EDGE ( 'NONE', *, *, #98, .T. ) ;
#224 = ORIENTED_EDGE ( 'NONE', *, *, #151, .T. ) ;
#225 = VERTEX_POINT ( 'NONE', #183 ) ;
#226 = FACE_OUTER_BOUND ( 'NONE', #36, .T. ) ;
#227 = ORIENTED_EDGE ( 'NONE', *, *, #129, .T. ) ;
#228 = SURFACE_STYLE_FILL_AREA ( #93 ) ;
#229 = DIRECTION ( 'NONE',  ( 0.0000000000000000000, 0.0000000000000000000, 1.000000000000000000 ) ) ;
#230 = EDGE_CURVE ( 'NONE', #158, #177, #1, .T. ) ;
#231 = DIRECTION ( 'NONE',  ( -0.0000000000000000000, 1.000000000000000000, -0.0000000000000000000 ) ) ;
#232 = MECHANICAL_DESIGN_GEOMETRIC_PRESENTATION_REPRESENTATION (  '', ( #135 ), #60 ) ;
#233 = COLOUR_RGB ( '',1.000000000000000000, 1.000000000000000000, 1.000000000000000000 ) ;
#234 = FACE_OUTER_BOUND ( 'NONE', #136, .T. ) ;
#235 = SURFACE_SIDE_STYLE ('',( #16 ) ) ;
#236 =( NAMED_UNIT ( * ) SI_UNIT ( $, .STERADIAN. ) SOLID_ANGLE_UNIT ( ) );
#237 = ORIENTED_EDGE ( 'NONE', *, *, #120, .F. ) ;
#238 = SURFACE_SIDE_STYLE ('',( #37 ) ) ;
#239 = DIRECTION ( 'NONE',  ( 0.0000000000000000000, -0.0000000000000000000, -1.000000000000000000 ) ) ;
#240 = CARTESIAN_POINT ( 'NONE',  ( 0.0000000000000000000, 161.3761669434274500, 0.0000000000000000000 ) ) ;
#241 = VECTOR ( 'NONE', #152, 1000.000000000000000 ) ;
#242 = EDGE_CURVE ( 'NONE', #209, #145, #217, .T. ) ;
#243 = AXIS2_PLACEMENT_3D ( 'NONE', #121, #5, #97 ) ;
#244 = ORIENTED_EDGE ( 'NONE', *, *, #208, .F. ) ;
ENDSEC;
END-ISO-10303-21;
