ISO-10303-21;
HEADER;
FILE_DESCRIPTION (( 'STEP AP203' ),
    '1' );
FILE_NAME ('1.5.3.45-ZXO-9.5-125.STEP',
    '2024-05-31T06:05:52',
    ( '' ),
    ( '' ),
    'SwSTEP 2.0',
    'SolidWorks 2021',
    '' );
FILE_SCHEMA (( 'CONFIG_CONTROL_DESIGN' ));
ENDSEC;

DATA;
#1 = LINE ( 'NONE', #125, #50 ) ;
#2 = VERTEX_POINT ( 'NONE', #54 ) ;
#3 = ORIENTED_EDGE ( 'NONE', *, *, #208, .F. ) ;
#4 = DIRECTION ( 'NONE',  ( 0.000000000000000000, 1.000000000000000000, 0.000000000000000000 ) ) ;
#5 = AXIS2_PLACEMENT_3D ( 'NONE', #213, #215, #55 ) ;
#6 = LOCAL_TIME ( 14, 5, 52.00000000000000000, #186 ) ;
#7 = CARTESIAN_POINT ( 'NONE',  ( 0.000000000000000000, 0.000000000000000000, 0.000000000000000000 ) ) ;
#8 = ADVANCED_FACE ( 'NONE', ( #76 ), #49, .F. ) ;
#9 = PLANE ( 'NONE',  #31 ) ;
#10 = DIRECTION ( 'NONE',  ( 0.000000000000000000, 1.000000000000000000, 0.000000000000000000 ) ) ;
#11 = LOCAL_TIME ( 14, 5, 52.00000000000000000, #47 ) ;
#12 = DIRECTION ( 'NONE',  ( 0.000000000000000000, 0.000000000000000000, 1.000000000000000000 ) ) ;
#13 = CALENDAR_DATE ( 2024, 31, 5 ) ;
#14 = DATE_AND_TIME ( #103, #184 ) ;
#15 = CIRCLE ( 'NONE', #60, 4.750000000000000000 ) ;
#16 = LINE ( 'NONE', #210, #84 ) ;
#17 = ORIENTED_EDGE ( 'NONE', *, *, #90, .T. ) ;
#18 = CARTESIAN_POINT ( 'NONE',  ( 0.000000000000000000, 0.05000000000000000278, 0.000000000000000000 ) ) ;
#19 = ORIENTED_EDGE ( 'NONE', *, *, #90, .F. ) ;
#20 = CC_DESIGN_APPROVAL ( #145, ( #92 ) ) ;
#21 = CARTESIAN_POINT ( 'NONE',  ( 7.654042494670957545E-18, 0.000000000000000000, 0.06250000000000000000 ) ) ;
#22 = DIRECTION ( 'NONE',  ( 0.000000000000000000, 0.000000000000000000, 1.000000000000000000 ) ) ;
#23 = CLOSED_SHELL ( 'NONE', ( #229, #53, #193, #168, #126, #8 ) ) ;
#24 = EDGE_CURVE ( 'NONE', #192, #153, #1, .T. ) ;
#25 = APPROVAL_PERSON_ORGANIZATION ( #85, #219, #32 ) ;
#26 = CARTESIAN_POINT ( 'NONE',  ( 5.817072295949927426E-16, 0.000000000000000000, 4.750000000000000000 ) ) ;
#27 =( NAMED_UNIT ( * ) PLANE_ANGLE_UNIT ( ) SI_UNIT ( $, .RADIAN. ) );
#28 = FACE_BOUND ( 'NONE', #175, .T. ) ;
#29 = APPROVAL_STATUS ( 'not_yet_approved' ) ;
#30 = PRODUCT_DEFINITION ( 'Î´Öª', '', #92, #56 ) ;
#31 = AXIS2_PLACEMENT_3D ( 'NONE', #7, #178, #136 ) ;
#32 = APPROVAL_ROLE ( '' ) ;
#33 = PERSON_AND_ORGANIZATION ( #137, #95 ) ;
#34 = EDGE_LOOP ( 'NONE', ( #109, #207 ) ) ;
#35 = CARTESIAN_POINT ( 'NONE',  ( 0.000000000000000000, 0.05000000000000000278, 0.000000000000000000 ) ) ;
#36 = EDGE_LOOP ( 'NONE', ( #248, #154, #111, #249 ) ) ;
#37 = EDGE_LOOP ( 'NONE', ( #170, #149, #150, #233 ) ) ;
#38 = CARTESIAN_POINT ( 'NONE',  ( 0.000000000000000000, 0.05000000000000000278, 0.000000000000000000 ) ) ;
#39 = CARTESIAN_POINT ( 'NONE',  ( 0.000000000000000000, 0.05000000000000000278, -4.750000000000000000 ) ) ;
#40 = DIRECTION ( 'NONE',  ( 0.000000000000000000, 1.000000000000000000, 0.000000000000000000 ) ) ;
#41 = CARTESIAN_POINT ( 'NONE',  ( 0.000000000000000000, 0.000000000000000000, 0.000000000000000000 ) ) ;
#42 = FACE_BOUND ( 'NONE', #70, .T. ) ;
#43 = CALENDAR_DATE ( 2024, 31, 5 ) ;
#44 = APPROVAL_STATUS ( 'not_yet_approved' ) ;
#45 = PERSON_AND_ORGANIZATION_ROLE ( 'creator' ) ;
#46 = EDGE_CURVE ( 'NONE', #204, #69, #16, .T. ) ;
#47 = COORDINATED_UNIVERSAL_TIME_OFFSET ( 8, 0, .AHEAD. ) ;
#48 = DIRECTION ( 'NONE',  ( 0.000000000000000000, 1.000000000000000000, 0.000000000000000000 ) ) ;
#49 = CYLINDRICAL_SURFACE ( 'NONE', #166, 0.06250000000000000000 ) ;
#50 = VECTOR ( 'NONE', #190, 1000.000000000000000 ) ;
#51 = ORIENTED_EDGE ( 'NONE', *, *, #46, .T. ) ;
#52 = DIRECTION ( 'NONE',  ( 0.000000000000000000, 0.000000000000000000, 1.000000000000000000 ) ) ;
#53 = ADVANCED_FACE ( 'NONE', ( #131 ), #88, .T. ) ;
#54 = CARTESIAN_POINT ( 'NONE',  ( 0.000000000000000000, 0.000000000000000000, -4.750000000000000000 ) ) ;
#55 = DIRECTION ( 'NONE',  ( 0.000000000000000000, 0.000000000000000000, -1.000000000000000000 ) ) ;
#56 = DESIGN_CONTEXT ( 'detailed design', #163, 'design' ) ;
#57 = CARTESIAN_POINT ( 'NONE',  ( 5.817072295949927426E-16, 0.05000000000000000278, 4.750000000000000000 ) ) ;
#58 = DIRECTION ( 'NONE',  ( 0.000000000000000000, 0.000000000000000000, 1.000000000000000000 ) ) ;
#59 = DIRECTION ( 'NONE',  ( 0.000000000000000000, 1.000000000000000000, 0.000000000000000000 ) ) ;
#60 = AXIS2_PLACEMENT_3D ( 'NONE', #134, #160, #162 ) ;
#61 = CARTESIAN_POINT ( 'NONE',  ( 0.000000000000000000, 0.05000000000000000278, 0.000000000000000000 ) ) ;
#62 = PERSON_AND_ORGANIZATION ( #137, #95 ) ;
#63 = CC_DESIGN_DATE_AND_TIME_ASSIGNMENT ( #183, #122, ( #161 ) ) ;
#64 = EDGE_CURVE ( 'NONE', #209, #189, #79, .T. ) ;
#65 = PERSON_AND_ORGANIZATION_ROLE ( 'design_owner' ) ;
#66 = CALENDAR_DATE ( 2024, 31, 5 ) ;
#67 = DATE_TIME_ROLE ( 'creation_date' ) ;
#68 = LOCAL_TIME ( 14, 5, 52.00000000000000000, #218 ) ;
#69 = VERTEX_POINT ( 'NONE', #21 ) ;
#70 = EDGE_LOOP ( 'NONE', ( #19, #89 ) ) ;
#71 = ADVANCED_BREP_SHAPE_REPRESENTATION ( '1.5.3.45-ZXO-9.5-125', ( #130, #101 ), #206 ) ;
#72 = EDGE_CURVE ( 'NONE', #69, #153, #235, .T. ) ;
#73 = AXIS2_PLACEMENT_3D ( 'NONE', #94, #48, #129 ) ;
#74 = CC_DESIGN_PERSON_AND_ORGANIZATION_ASSIGNMENT ( #33, #65, ( #211 ) ) ;
#75 = CARTESIAN_POINT ( 'NONE',  ( 0.000000000000000000, 0.05000000000000000278, 0.000000000000000000 ) ) ;
#76 = FACE_OUTER_BOUND ( 'NONE', #36, .T. ) ;
#77 = ORIENTED_EDGE ( 'NONE', *, *, #24, .F. ) ;
#78 = CARTESIAN_POINT ( 'NONE',  ( 0.000000000000000000, 0.05000000000000000278, -0.06250000000000000000 ) ) ;
#79 = CIRCLE ( 'NONE', #132, 4.750000000000000000 ) ;
#80 = FACE_OUTER_BOUND ( 'NONE', #34, .T. ) ;
#81 = CARTESIAN_POINT ( 'NONE',  ( 0.000000000000000000, 0.05000000000000000278, 0.000000000000000000 ) ) ;
#82 = CARTESIAN_POINT ( 'NONE',  ( 5.817072295949927426E-16, 0.05000000000000000278, 4.750000000000000000 ) ) ;
#83 = PERSON_AND_ORGANIZATION_ROLE ( 'classification_officer' ) ;
#84 = VECTOR ( 'NONE', #205, 1000.000000000000000 ) ;
#85 = PERSON_AND_ORGANIZATION ( #137, #95 ) ;
#86 = PERSON_AND_ORGANIZATION ( #137, #95 ) ;
#87 = AXIS2_PLACEMENT_3D ( 'NONE', #75, #188, #232 ) ;
#88 = CYLINDRICAL_SURFACE ( 'NONE', #87, 4.750000000000000000 ) ;
#89 = ORIENTED_EDGE ( 'NONE', *, *, #158, .F. ) ;
#90 = EDGE_CURVE ( 'NONE', #192, #204, #173, .T. ) ;
#91 = EDGE_LOOP ( 'NONE', ( #17, #51, #110, #77 ) ) ;
#92 = PRODUCT_DEFINITION_FORMATION_WITH_SPECIFIED_SOURCE ( 'ÈÎºÎ', '', #211, .NOT_KNOWN. ) ;
#93 = ORIENTED_EDGE ( 'NONE', *, *, #72, .T. ) ;
#94 = CARTESIAN_POINT ( 'NONE',  ( 0.000000000000000000, 0.000000000000000000, 0.000000000000000000 ) ) ;
#95 = ORGANIZATION ( 'Î´Ö¸¶¨', 'Î´Ö¸¶¨', '' ) ;
#96 = PRODUCT_DEFINITION_SHAPE ( 'NONE', 'NONE',  #30 ) ;
#97 = EDGE_CURVE ( 'NONE', #153, #69, #114, .T. ) ;
#98 = LINE ( 'NONE', #82, #120 ) ;
#99 = DIRECTION ( 'NONE',  ( -0.000000000000000000, -1.000000000000000000, -0.000000000000000000 ) ) ;
#100 = APPLICATION_PROTOCOL_DEFINITION ( 'international standard', 'config_control_design', 1994, #163 ) ;
#101 = AXIS2_PLACEMENT_3D ( 'NONE', #241, #12, #165 ) ;
#102 = PERSON_AND_ORGANIZATION ( #137, #95 ) ;
#103 = CALENDAR_DATE ( 2024, 31, 5 ) ;
#104 = ORIENTED_EDGE ( 'NONE', *, *, #116, .T. ) ;
#105 = CIRCLE ( 'NONE', #226, 4.750000000000000000 ) ;
#106 = VECTOR ( 'NONE', #99, 1000.000000000000000 ) ;
#107 = CC_DESIGN_PERSON_AND_ORGANIZATION_ASSIGNMENT ( #62, #83, ( #161 ) ) ;
#108 = DIRECTION ( 'NONE',  ( 0.000000000000000000, 1.000000000000000000, 0.000000000000000000 ) ) ;
#109 = ORIENTED_EDGE ( 'NONE', *, *, #220, .T. ) ;
#110 = ORIENTED_EDGE ( 'NONE', *, *, #97, .F. ) ;
#111 = ORIENTED_EDGE ( 'NONE', *, *, #24, .T. ) ;
#112 = CARTESIAN_POINT ( 'NONE',  ( 0.000000000000000000, 0.05000000000000000278, -4.750000000000000000 ) ) ;
#113 = CARTESIAN_POINT ( 'NONE',  ( 0.000000000000000000, 0.000000000000000000, 0.000000000000000000 ) ) ;
#114 = CIRCLE ( 'NONE', #247, 0.06250000000000000000 ) ;
#115 = DIRECTION ( 'NONE',  ( 0.000000000000000000, 0.000000000000000000, 1.000000000000000000 ) ) ;
#116 = EDGE_CURVE ( 'NONE', #189, #2, #236, .T. ) ;
#117 =( LENGTH_UNIT ( ) NAMED_UNIT ( * ) SI_UNIT ( .MILLI., .METRE. ) );
#118 = DIRECTION ( 'NONE',  ( 0.000000000000000000, 0.000000000000000000, 1.000000000000000000 ) ) ;
#119 = CALENDAR_DATE ( 2024, 31, 5 ) ;
#120 = VECTOR ( 'NONE', #159, 1000.000000000000000 ) ;
#121 = APPROVAL_DATE_TIME ( #223, #145 ) ;
#122 = DATE_TIME_ROLE ( 'classification_date' ) ;
#123 = AXIS2_PLACEMENT_3D ( 'NONE', #113, #40, #115 ) ;
#124 = CC_DESIGN_PERSON_AND_ORGANIZATION_ASSIGNMENT ( #203, #181, ( #92 ) ) ;
#125 = CARTESIAN_POINT ( 'NONE',  ( 0.000000000000000000, 0.05000000000000000278, -0.06250000000000000000 ) ) ;
#126 = ADVANCED_FACE ( 'NONE', ( #133 ), #197, .T. ) ;
#127 = ORIENTED_EDGE ( 'NONE', *, *, #167, .F. ) ;
#128 = EDGE_LOOP ( 'NONE', ( #127, #230 ) ) ;
#129 = DIRECTION ( 'NONE',  ( 0.000000000000000000, 0.000000000000000000, 1.000000000000000000 ) ) ;
#130 = MANIFOLD_SOLID_BREP ( 'Í¹Ì¨-À­Éì1', #23 ) ;
#131 = FACE_OUTER_BOUND ( 'NONE', #37, .T. ) ;
#132 = AXIS2_PLACEMENT_3D ( 'NONE', #38, #174, #52 ) ;
#133 = FACE_OUTER_BOUND ( 'NONE', #243, .T. ) ;
#134 = CARTESIAN_POINT ( 'NONE',  ( 0.000000000000000000, 0.05000000000000000278, 0.000000000000000000 ) ) ;
#135 = CIRCLE ( 'NONE', #123, 4.750000000000000000 ) ;
#136 = DIRECTION ( 'NONE',  ( 0.000000000000000000, -0.000000000000000000, 1.000000000000000000 ) ) ;
#137 = PERSON ( 'Î´Ö¸¶¨', 'Î´Ö¸¶¨', 'Î´Ö¸¶¨', ('Î´Ö¸¶¨'), ('Î´Ö¸¶¨'), ('Î´Ö¸¶¨') ) ;
#138 = CARTESIAN_POINT ( 'NONE',  ( 0.000000000000000000, 0.05000000000000000278, 0.000000000000000000 ) ) ;
#139 = PERSON_AND_ORGANIZATION_ROLE ( 'creator' ) ;
#140 = PERSON_AND_ORGANIZATION ( #137, #95 ) ;
#141 = AXIS2_PLACEMENT_3D ( 'NONE', #61, #176, #234 ) ;
#142 = CC_DESIGN_APPROVAL ( #219, ( #161 ) ) ;
#143 = MECHANICAL_CONTEXT ( 'NONE', #151, 'mechanical' ) ;
#144 = COORDINATED_UNIVERSAL_TIME_OFFSET ( 8, 0, .AHEAD. ) ;
#145 = APPROVAL ( #146, 'Î´Ö¸¶¨' ) ;
#146 = APPROVAL_STATUS ( 'not_yet_approved' ) ;
#147 = CC_DESIGN_PERSON_AND_ORGANIZATION_ASSIGNMENT ( #140, #139, ( #92 ) ) ;
#148 = CC_DESIGN_DATE_AND_TIME_ASSIGNMENT ( #164, #67, ( #30 ) ) ;
#149 = ORIENTED_EDGE ( 'NONE', *, *, #208, .T. ) ;
#150 = ORIENTED_EDGE ( 'NONE', *, *, #242, .T. ) ;
#151 = APPLICATION_CONTEXT ( 'configuration controlled 3d designs of mechanical parts and assemblies' ) ;
#152 = AXIS2_PLACEMENT_3D ( 'NONE', #81, #59, #157 ) ;
#153 = VERTEX_POINT ( 'NONE', #179 ) ;
#154 = ORIENTED_EDGE ( 'NONE', *, *, #158, .T. ) ;
#155 =( NAMED_UNIT ( * ) SI_UNIT ( $, .STERADIAN. ) SOLID_ANGLE_UNIT ( ) );
#156 = UNCERTAINTY_MEASURE_WITH_UNIT (LENGTH_MEASURE( 1.000000000000000082E-05 ), #117, 'distance_accuracy_value', 'NONE');
#157 = DIRECTION ( 'NONE',  ( 0.000000000000000000, -0.000000000000000000, 1.000000000000000000 ) ) ;
#158 = EDGE_CURVE ( 'NONE', #204, #192, #191, .T. ) ;
#159 = DIRECTION ( 'NONE',  ( -0.000000000000000000, -1.000000000000000000, -0.000000000000000000 ) ) ;
#160 = DIRECTION ( 'NONE',  ( 0.000000000000000000, 1.000000000000000000, 0.000000000000000000 ) ) ;
#161 = SECURITY_CLASSIFICATION ( '', '', #246 ) ;
#162 = DIRECTION ( 'NONE',  ( 0.000000000000000000, 0.000000000000000000, 1.000000000000000000 ) ) ;
#163 = APPLICATION_CONTEXT ( 'configuration controlled 3d designs of mechanical parts and assemblies' ) ;
#164 = DATE_AND_TIME ( #66, #201 ) ;
#165 = DIRECTION ( 'NONE',  ( 1.000000000000000000, 0.000000000000000000, 0.000000000000000000 ) ) ;
#166 = AXIS2_PLACEMENT_3D ( 'NONE', #18, #172, #171 ) ;
#167 = EDGE_CURVE ( 'NONE', #2, #228, #105, .T. ) ;
#168 = ADVANCED_FACE ( 'NONE', ( #217, #28 ), #9, .F. ) ;
#169 = COORDINATED_UNIVERSAL_TIME_OFFSET ( 8, 0, .AHEAD. ) ;
#170 = ORIENTED_EDGE ( 'NONE', *, *, #64, .F. ) ;
#171 = DIRECTION ( 'NONE',  ( 0.000000000000000000, 0.000000000000000000, -1.000000000000000000 ) ) ;
#172 = DIRECTION ( 'NONE',  ( -0.000000000000000000, -1.000000000000000000, -0.000000000000000000 ) ) ;
#173 = CIRCLE ( 'NONE', #231, 0.06250000000000000000 ) ;
#174 = DIRECTION ( 'NONE',  ( 0.000000000000000000, 1.000000000000000000, 0.000000000000000000 ) ) ;
#175 = EDGE_LOOP ( 'NONE', ( #227, #93 ) ) ;
#176 = DIRECTION ( 'NONE',  ( -0.000000000000000000, -1.000000000000000000, -0.000000000000000000 ) ) ;
#177 = PRODUCT_RELATED_PRODUCT_CATEGORY ( 'detail', '', ( #211 ) ) ;
#178 = DIRECTION ( 'NONE',  ( 0.000000000000000000, 1.000000000000000000, 0.000000000000000000 ) ) ;
#179 = CARTESIAN_POINT ( 'NONE',  ( 0.000000000000000000, 0.000000000000000000, -0.06250000000000000000 ) ) ;
#180 = CARTESIAN_POINT ( 'NONE',  ( 0.000000000000000000, 0.000000000000000000, 0.000000000000000000 ) ) ;
#181 = PERSON_AND_ORGANIZATION_ROLE ( 'design_supplier' ) ;
#182 = PERSON_AND_ORGANIZATION ( #137, #95 ) ;
#183 = DATE_AND_TIME ( #43, #11 ) ;
#184 = LOCAL_TIME ( 14, 5, 52.00000000000000000, #144 ) ;
#185 = APPROVAL_ROLE ( '' ) ;
#186 = COORDINATED_UNIVERSAL_TIME_OFFSET ( 8, 0, .AHEAD. ) ;
#187 = ORIENTED_EDGE ( 'NONE', *, *, #167, .T. ) ;
#188 = DIRECTION ( 'NONE',  ( -0.000000000000000000, -1.000000000000000000, -0.000000000000000000 ) ) ;
#189 = VERTEX_POINT ( 'NONE', #112 ) ;
#190 = DIRECTION ( 'NONE',  ( -0.000000000000000000, -1.000000000000000000, -0.000000000000000000 ) ) ;
#191 = CIRCLE ( 'NONE', #221, 0.06250000000000000000 ) ;
#192 = VERTEX_POINT ( 'NONE', #78 ) ;
#193 = ADVANCED_FACE ( 'NONE', ( #80, #42 ), #238, .T. ) ;
#194 = CC_DESIGN_PERSON_AND_ORGANIZATION_ASSIGNMENT ( #86, #45, ( #30 ) ) ;
#195 = DIRECTION ( 'NONE',  ( 0.000000000000000000, 1.000000000000000000, 0.000000000000000000 ) ) ;
#196 = DIRECTION ( 'NONE',  ( 0.000000000000000000, 0.000000000000000000, 1.000000000000000000 ) ) ;
#197 = CYLINDRICAL_SURFACE ( 'NONE', #141, 4.750000000000000000 ) ;
#198 = APPROVAL_DATE_TIME ( #225, #219 ) ;
#199 = APPLICATION_PROTOCOL_DEFINITION ( 'international standard', 'config_control_design', 1994, #151 ) ;
#200 = APPROVAL_ROLE ( '' ) ;
#201 = LOCAL_TIME ( 14, 5, 52.00000000000000000, #169 ) ;
#202 = ORIENTED_EDGE ( 'NONE', *, *, #220, .F. ) ;
#203 = PERSON_AND_ORGANIZATION ( #137, #95 ) ;
#204 = VERTEX_POINT ( 'NONE', #237 ) ;
#205 = DIRECTION ( 'NONE',  ( -0.000000000000000000, -1.000000000000000000, -0.000000000000000000 ) ) ;
#206 =( GEOMETRIC_REPRESENTATION_CONTEXT ( 3 ) GLOBAL_UNCERTAINTY_ASSIGNED_CONTEXT ( ( #156 ) ) GLOBAL_UNIT_ASSIGNED_CONTEXT ( ( #117, #27, #155 ) ) REPRESENTATION_CONTEXT ( 'NONE', 'WORKASPACE' ) );
#207 = ORIENTED_EDGE ( 'NONE', *, *, #64, .T. ) ;
#208 = EDGE_CURVE ( 'NONE', #209, #228, #98, .T. ) ;
#209 = VERTEX_POINT ( 'NONE', #57 ) ;
#210 = CARTESIAN_POINT ( 'NONE',  ( 7.654042494670957545E-18, 0.05000000000000000278, 0.06250000000000000000 ) ) ;
#211 = PRODUCT ( '1.5.3.45-ZXO-9.5-125', '1.5.3.45-ZXO-9.5-125', '', ( #143 ) ) ;
#212 = FACE_OUTER_BOUND ( 'NONE', #91, .T. ) ;
#213 = CARTESIAN_POINT ( 'NONE',  ( 0.000000000000000000, 0.05000000000000000278, 0.000000000000000000 ) ) ;
#214 = CC_DESIGN_APPROVAL ( #216, ( #30 ) ) ;
#215 = DIRECTION ( 'NONE',  ( -0.000000000000000000, -1.000000000000000000, -0.000000000000000000 ) ) ;
#216 = APPROVAL ( #44, 'Î´Ö¸¶¨' ) ;
#217 = FACE_OUTER_BOUND ( 'NONE', #128, .T. ) ;
#218 = COORDINATED_UNIVERSAL_TIME_OFFSET ( 8, 0, .AHEAD. ) ;
#219 = APPROVAL ( #29, 'Î´Ö¸¶¨' ) ;
#220 = EDGE_CURVE ( 'NONE', #189, #209, #15, .T. ) ;
#221 = AXIS2_PLACEMENT_3D ( 'NONE', #138, #195, #196 ) ;
#222 = SHAPE_DEFINITION_REPRESENTATION ( #96, #71 ) ;
#223 = DATE_AND_TIME ( #13, #68 ) ;
#224 = APPROVAL_DATE_TIME ( #14, #216 ) ;
#225 = DATE_AND_TIME ( #119, #6 ) ;
#226 = AXIS2_PLACEMENT_3D ( 'NONE', #41, #4, #22 ) ;
#227 = ORIENTED_EDGE ( 'NONE', *, *, #97, .T. ) ;
#228 = VERTEX_POINT ( 'NONE', #26 ) ;
#229 = ADVANCED_FACE ( 'NONE', ( #212 ), #240, .F. ) ;
#230 = ORIENTED_EDGE ( 'NONE', *, *, #242, .F. ) ;
#231 = AXIS2_PLACEMENT_3D ( 'NONE', #35, #108, #58 ) ;
#232 = DIRECTION ( 'NONE',  ( 0.000000000000000000, 0.000000000000000000, -1.000000000000000000 ) ) ;
#233 = ORIENTED_EDGE ( 'NONE', *, *, #116, .F. ) ;
#234 = DIRECTION ( 'NONE',  ( 0.000000000000000000, 0.000000000000000000, -1.000000000000000000 ) ) ;
#235 = CIRCLE ( 'NONE', #73, 0.06250000000000000000 ) ;
#236 = LINE ( 'NONE', #39, #106 ) ;
#237 = CARTESIAN_POINT ( 'NONE',  ( 7.654042494670957545E-18, 0.05000000000000000278, 0.06250000000000000000 ) ) ;
#238 = PLANE ( 'NONE',  #152 ) ;
#239 = APPROVAL_PERSON_ORGANIZATION ( #182, #145, #200 ) ;
#240 = CYLINDRICAL_SURFACE ( 'NONE', #5, 0.06250000000000000000 ) ;
#241 = CARTESIAN_POINT ( 'NONE',  ( 0.000000000000000000, 0.000000000000000000, 0.000000000000000000 ) ) ;
#242 = EDGE_CURVE ( 'NONE', #228, #2, #135, .T. ) ;
#243 = EDGE_LOOP ( 'NONE', ( #3, #202, #104, #187 ) ) ;
#244 = APPROVAL_PERSON_ORGANIZATION ( #102, #216, #185 ) ;
#245 = CC_DESIGN_SECURITY_CLASSIFICATION ( #161, ( #92 ) ) ;
#246 = SECURITY_CLASSIFICATION_LEVEL ( 'unclassified' ) ;
#247 = AXIS2_PLACEMENT_3D ( 'NONE', #180, #10, #118 ) ;
#248 = ORIENTED_EDGE ( 'NONE', *, *, #46, .F. ) ;
#249 = ORIENTED_EDGE ( 'NONE', *, *, #72, .F. ) ;
ENDSEC;
END-ISO-10303-21;
