ISO-10303-21;
HEADER;
FILE_DESCRIPTION (( 'STEP AP203' ),
    '1' );
FILE_NAME ('1.5.4.8-ZXG-9.5-75.STEP',
    '2024-05-29T06:48:56',
    ( '' ),
    ( '' ),
    'SwSTEP 2.0',
    'SolidWorks 2021',
    '' );
FILE_SCHEMA (( 'CONFIG_CONTROL_DESIGN' ));
ENDSEC;

DATA;
#1 = EDGE_CURVE ( 'NONE', #155, #164, #144, .T. ) ;
#2 = ORIENTED_EDGE ( 'NONE', *, *, #176, .F. ) ;
#3 = APPROVAL_PERSON_ORGANIZATION ( #228, #301, #107 ) ;
#4 = DIRECTION ( 'NONE',  ( 0.000000000000000000, 0.000000000000000000, 1.000000000000000000 ) ) ;
#5 = DATE_TIME_ROLE ( 'classification_date' ) ;
#6 = PLANE ( 'NONE',  #265 ) ;
#7 = EDGE_CURVE ( 'NONE', #94, #68, #220, .T. ) ;
#8 = ORIENTED_EDGE ( 'NONE', *, *, #60, .T. ) ;
#9 = APPROVAL_STATUS ( 'not_yet_approved' ) ;
#10 = DIRECTION ( 'NONE',  ( 0.000000000000000000, 0.000000000000000000, 1.000000000000000000 ) ) ;
#11 = CARTESIAN_POINT ( 'NONE',  ( 1.499999999999999556, 0.05000000000000000278, -0.03750000000000000555 ) ) ;
#12 = CC_DESIGN_PERSON_AND_ORGANIZATION_ASSIGNMENT ( #77, #73, ( #237 ) ) ;
#13 = DIRECTION ( 'NONE',  ( 0.000000000000000000, 1.000000000000000000, 0.000000000000000000 ) ) ;
#14 = CARTESIAN_POINT ( 'NONE',  ( -1.500000000000000444, 0.05000000000000000278, -0.03750000000000000555 ) ) ;
#15 = DIRECTION ( 'NONE',  ( -0.000000000000000000, -1.000000000000000000, -0.000000000000000000 ) ) ;
#16 = APPLICATION_CONTEXT ( 'configuration controlled 3d designs of mechanical parts and assemblies' ) ;
#17 = VECTOR ( 'NONE', #299, 1000.000000000000000 ) ;
#18 = ORIENTED_EDGE ( 'NONE', *, *, #207, .T. ) ;
#19 = APPROVAL_DATE_TIME ( #130, #301 ) ;
#20 = ORIENTED_EDGE ( 'NONE', *, *, #135, .T. ) ;
#21 = ADVANCED_FACE ( 'NONE', ( #76 ), #142, .T. ) ;
#22 = CYLINDRICAL_SURFACE ( 'NONE', #41, 4.750000000000000000 ) ;
#23 = PERSON ( 'Î´Ö¸¶¨', 'Î´Ö¸¶¨', 'Î´Ö¸¶¨', ('Î´Ö¸¶¨'), ('Î´Ö¸¶¨'), ('Î´Ö¸¶¨') ) ;
#24 = EDGE_LOOP ( 'NONE', ( #204, #233, #191, #311 ) ) ;
#25 = AXIS2_PLACEMENT_3D ( 'NONE', #223, #148, #79 ) ;
#26 = APPROVAL_DATE_TIME ( #287, #230 ) ;
#27 = CARTESIAN_POINT ( 'NONE',  ( 1.499999999999999556, 0.05000000000000000278, -0.03750000000000000555 ) ) ;
#28 = UNCERTAINTY_MEASURE_WITH_UNIT (LENGTH_MEASURE( 1.000000000000000082E-05 ), #251, 'distance_accuracy_value', 'NONE');
#29 = SHAPE_DEFINITION_REPRESENTATION ( #179, #48 ) ;
#30 = CARTESIAN_POINT ( 'NONE',  ( -1.500000000000000444, 0.000000000000000000, -0.03750000000000000555 ) ) ;
#31 = DIRECTION ( 'NONE',  ( 1.000000000000000000, 0.000000000000000000, 0.000000000000000000 ) ) ;
#32 =( GEOMETRIC_REPRESENTATION_CONTEXT ( 3 ) GLOBAL_UNCERTAINTY_ASSIGNED_CONTEXT ( ( #28 ) ) GLOBAL_UNIT_ASSIGNED_CONTEXT ( ( #251, #302, #85 ) ) REPRESENTATION_CONTEXT ( 'NONE', 'WORKASPACE' ) );
#33 = AXIS2_PLACEMENT_3D ( 'NONE', #196, #296, #272 ) ;
#34 = DIRECTION ( 'NONE',  ( -0.000000000000000000, -0.000000000000000000, -1.000000000000000000 ) ) ;
#35 = DIRECTION ( 'NONE',  ( 0.000000000000000000, 1.000000000000000000, 0.000000000000000000 ) ) ;
#36 = LINE ( 'NONE', #11, #17 ) ;
#37 = APPROVAL_PERSON_ORGANIZATION ( #141, #221, #218 ) ;
#38 = FACE_BOUND ( 'NONE', #264, .T. ) ;
#39 = DIRECTION ( 'NONE',  ( -1.000000000000000000, -0.000000000000000000, -0.000000000000000000 ) ) ;
#40 = VERTEX_POINT ( 'NONE', #260 ) ;
#41 = AXIS2_PLACEMENT_3D ( 'NONE', #162, #288, #72 ) ;
#42 = CC_DESIGN_PERSON_AND_ORGANIZATION_ASSIGNMENT ( #268, #190, ( #237 ) ) ;
#43 = PERSON_AND_ORGANIZATION_ROLE ( 'design_owner' ) ;
#44 = ORIENTED_EDGE ( 'NONE', *, *, #106, .F. ) ;
#45 = CC_DESIGN_PERSON_AND_ORGANIZATION_ASSIGNMENT ( #132, #43, ( #281 ) ) ;
#46 = DIRECTION ( 'NONE',  ( -0.000000000000000000, -1.000000000000000000, -0.000000000000000000 ) ) ;
#47 = FACE_OUTER_BOUND ( 'NONE', #154, .T. ) ;
#48 = ADVANCED_BREP_SHAPE_REPRESENTATION ( '1.5.4.8-ZXG-9.5-75', ( #199, #126 ), #32 ) ;
#49 = PLANE ( 'NONE',  #82 ) ;
#50 = COORDINATED_UNIVERSAL_TIME_OFFSET ( 8, 0, .AHEAD. ) ;
#51 = CARTESIAN_POINT ( 'NONE',  ( -1.500000000000000444, 0.05000000000000000278, -0.03750000000000000555 ) ) ;
#52 = DIRECTION ( 'NONE',  ( -1.000000000000000000, -0.000000000000000000, -0.000000000000000000 ) ) ;
#53 = ADVANCED_FACE ( 'NONE', ( #91 ), #49, .T. ) ;
#54 = FACE_OUTER_BOUND ( 'NONE', #66, .T. ) ;
#55 = VECTOR ( 'NONE', #31, 1000.000000000000000 ) ;
#56 = COORDINATED_UNIVERSAL_TIME_OFFSET ( 8, 0, .AHEAD. ) ;
#57 = CARTESIAN_POINT ( 'NONE',  ( 0.000000000000000000, 0.000000000000000000, 0.000000000000000000 ) ) ;
#58 = LINE ( 'NONE', #81, #279 ) ;
#59 = CARTESIAN_POINT ( 'NONE',  ( 0.000000000000000000, 0.05000000000000000278, 0.000000000000000000 ) ) ;
#60 = EDGE_CURVE ( 'NONE', #178, #40, #235, .T. ) ;
#61 = SECURITY_CLASSIFICATION ( '', '', #138 ) ;
#62 = LINE ( 'NONE', #222, #102 ) ;
#63 = VERTEX_POINT ( 'NONE', #187 ) ;
#64 = CC_DESIGN_DATE_AND_TIME_ASSIGNMENT ( #193, #216, ( #103 ) ) ;
#65 = LOCAL_TIME ( 14, 48, 56.00000000000000000, #56 ) ;
#66 = EDGE_LOOP ( 'NONE', ( #161, #252 ) ) ;
#67 = PERSON_AND_ORGANIZATION_ROLE ( 'creator' ) ;
#68 = VERTEX_POINT ( 'NONE', #189 ) ;
#69 = CARTESIAN_POINT ( 'NONE',  ( 1.499999999999999556, 0.05000000000000000278, -0.03750000000000000555 ) ) ;
#70 = VECTOR ( 'NONE', #39, 1000.000000000000000 ) ;
#71 = DIRECTION ( 'NONE',  ( 0.000000000000000000, 0.000000000000000000, 1.000000000000000000 ) ) ;
#72 = DIRECTION ( 'NONE',  ( 0.000000000000000000, 0.000000000000000000, -1.000000000000000000 ) ) ;
#73 = PERSON_AND_ORGANIZATION_ROLE ( 'design_supplier' ) ;
#74 = DIRECTION ( 'NONE',  ( -1.000000000000000000, 0.000000000000000000, -0.000000000000000000 ) ) ;
#75 = LOCAL_TIME ( 14, 48, 56.00000000000000000, #210 ) ;
#76 = FACE_OUTER_BOUND ( 'NONE', #24, .T. ) ;
#77 = PERSON_AND_ORGANIZATION ( #23, #129 ) ;
#78 = LINE ( 'NONE', #125, #275 ) ;
#79 = DIRECTION ( 'NONE',  ( 0.000000000000000000, 0.000000000000000000, -1.000000000000000000 ) ) ;
#80 = DIRECTION ( 'NONE',  ( 0.000000000000000000, 1.000000000000000000, 0.000000000000000000 ) ) ;
#81 = CARTESIAN_POINT ( 'NONE',  ( -1.500000000000000444, 0.05000000000000000278, -0.03750000000000000555 ) ) ;
#82 = AXIS2_PLACEMENT_3D ( 'NONE', #27, #239, #4 ) ;
#83 = APPLICATION_PROTOCOL_DEFINITION ( 'international standard', 'config_control_design', 1994, #100 ) ;
#84 = CC_DESIGN_PERSON_AND_ORGANIZATION_ASSIGNMENT ( #182, #67, ( #103 ) ) ;
#85 =( NAMED_UNIT ( * ) SI_UNIT ( $, .STERADIAN. ) SOLID_ANGLE_UNIT ( ) );
#86 = CC_DESIGN_APPROVAL ( #230, ( #237 ) ) ;
#87 = ORIENTED_EDGE ( 'NONE', *, *, #152, .T. ) ;
#88 = DIRECTION ( 'NONE',  ( 1.000000000000000000, 0.000000000000000000, 0.000000000000000000 ) ) ;
#89 = ORIENTED_EDGE ( 'NONE', *, *, #157, .T. ) ;
#90 = EDGE_LOOP ( 'NONE', ( #255, #256, #305, #87 ) ) ;
#91 = FACE_OUTER_BOUND ( 'NONE', #158, .T. ) ;
#92 = CIRCLE ( 'NONE', #186, 4.750000000000000000 ) ;
#93 = APPROVAL_ROLE ( '' ) ;
#94 = VERTEX_POINT ( 'NONE', #219 ) ;
#95 = CARTESIAN_POINT ( 'NONE',  ( -1.500000000000000444, 0.05000000000000000278, 0.03749999999999999167 ) ) ;
#96 = ORIENTED_EDGE ( 'NONE', *, *, #149, .T. ) ;
#97 = ADVANCED_FACE ( 'NONE', ( #47 ), #215, .T. ) ;
#98 = LINE ( 'NONE', #146, #253 ) ;
#99 = LINE ( 'NONE', #175, #140 ) ;
#100 = APPLICATION_CONTEXT ( 'configuration controlled 3d designs of mechanical parts and assemblies' ) ;
#101 = DIRECTION ( 'NONE',  ( 0.000000000000000000, -0.000000000000000000, 1.000000000000000000 ) ) ;
#102 = VECTOR ( 'NONE', #15, 1000.000000000000000 ) ;
#103 = PRODUCT_DEFINITION ( 'Î´Öª', '', #237, #290 ) ;
#104 = FACE_BOUND ( 'NONE', #266, .T. ) ;
#105 = CARTESIAN_POINT ( 'NONE',  ( 1.499999999999999556, 0.05000000000000000278, 0.03749999999999999167 ) ) ;
#106 = EDGE_CURVE ( 'NONE', #164, #178, #137, .T. ) ;
#107 = APPROVAL_ROLE ( '' ) ;
#108 = ORIENTED_EDGE ( 'NONE', *, *, #7, .T. ) ;
#109 = ORIENTED_EDGE ( 'NONE', *, *, #241, .T. ) ;
#110 = ORIENTED_EDGE ( 'NONE', *, *, #171, .T. ) ;
#111 = EDGE_CURVE ( 'NONE', #278, #68, #192, .T. ) ;
#112 = ORIENTED_EDGE ( 'NONE', *, *, #1, .T. ) ;
#113 = VERTEX_POINT ( 'NONE', #269 ) ;
#114 = ORIENTED_EDGE ( 'NONE', *, *, #207, .F. ) ;
#115 = ADVANCED_FACE ( 'NONE', ( #136 ), #22, .T. ) ;
#116 = VERTEX_POINT ( 'NONE', #69 ) ;
#117 = CIRCLE ( 'NONE', #33, 4.750000000000000000 ) ;
#118 = PERSON_AND_ORGANIZATION_ROLE ( 'classification_officer' ) ;
#119 = CARTESIAN_POINT ( 'NONE',  ( -1.500000000000000444, 0.000000000000000000, 0.03749999999999999167 ) ) ;
#120 = ADVANCED_FACE ( 'NONE', ( #163 ), #6, .T. ) ;
#121 = CARTESIAN_POINT ( 'NONE',  ( -1.500000000000000444, 0.000000000000000000, -0.03750000000000000555 ) ) ;
#122 = DIRECTION ( 'NONE',  ( -0.000000000000000000, -1.000000000000000000, -0.000000000000000000 ) ) ;
#123 = CIRCLE ( 'NONE', #180, 4.750000000000000000 ) ;
#124 = DIRECTION ( 'NONE',  ( -0.000000000000000000, -0.000000000000000000, -1.000000000000000000 ) ) ;
#125 = CARTESIAN_POINT ( 'NONE',  ( 1.499999999999999556, 0.05000000000000000278, 0.03749999999999999167 ) ) ;
#126 = AXIS2_PLACEMENT_3D ( 'NONE', #310, #304, #88 ) ;
#127 = CARTESIAN_POINT ( 'NONE',  ( -1.500000000000000444, 0.05000000000000000278, -0.03750000000000000555 ) ) ;
#128 = ORIENTED_EDGE ( 'NONE', *, *, #267, .T. ) ;
#129 = ORGANIZATION ( 'Î´Ö¸¶¨', 'Î´Ö¸¶¨', '' ) ;
#130 = DATE_AND_TIME ( #131, #225 ) ;
#131 = CALENDAR_DATE ( 2024, 29, 5 ) ;
#132 = PERSON_AND_ORGANIZATION ( #23, #129 ) ;
#133 = VECTOR ( 'NONE', #293, 1000.000000000000000 ) ;
#134 = ORIENTED_EDGE ( 'NONE', *, *, #249, .F. ) ;
#135 = EDGE_CURVE ( 'NONE', #183, #164, #167, .T. ) ;
#136 = FACE_OUTER_BOUND ( 'NONE', #308, .T. ) ;
#137 = LINE ( 'NONE', #30, #292 ) ;
#138 = SECURITY_CLASSIFICATION_LEVEL ( 'unclassified' ) ;
#139 = DIRECTION ( 'NONE',  ( 0.000000000000000000, 1.000000000000000000, 0.000000000000000000 ) ) ;
#140 = VECTOR ( 'NONE', #247, 1000.000000000000000 ) ;
#141 = PERSON_AND_ORGANIZATION ( #23, #129 ) ;
#142 = CYLINDRICAL_SURFACE ( 'NONE', #259, 4.750000000000000000 ) ;
#143 = CALENDAR_DATE ( 2024, 29, 5 ) ;
#144 = LINE ( 'NONE', #51, #133 ) ;
#145 = CALENDAR_DATE ( 2024, 29, 5 ) ;
#146 = CARTESIAN_POINT ( 'NONE',  ( 1.499999999999999556, 0.000000000000000000, -0.03750000000000000555 ) ) ;
#147 = VECTOR ( 'NONE', #34, 1000.000000000000000 ) ;
#148 = DIRECTION ( 'NONE',  ( 1.000000000000000000, 0.000000000000000000, 0.000000000000000000 ) ) ;
#149 = EDGE_CURVE ( 'NONE', #116, #155, #217, .T. ) ;
#150 = DIRECTION ( 'NONE',  ( 0.000000000000000000, 0.000000000000000000, 1.000000000000000000 ) ) ;
#151 = PLANE ( 'NONE',  #25 ) ;
#152 = EDGE_CURVE ( 'NONE', #236, #40, #78, .T. ) ;
#153 = CARTESIAN_POINT ( 'NONE',  ( 0.000000000000000000, 0.05000000000000000278, -4.750000000000000000 ) ) ;
#154 = EDGE_LOOP ( 'NONE', ( #232, #205, #96, #112 ) ) ;
#155 = VERTEX_POINT ( 'NONE', #127 ) ;
#156 = APPROVAL_PERSON_ORGANIZATION ( #271, #230, #93 ) ;
#157 = EDGE_CURVE ( 'NONE', #236, #116, #227, .T. ) ;
#158 = EDGE_LOOP ( 'NONE', ( #114, #258, #89, #128 ) ) ;
#159 = AXIS2_PLACEMENT_3D ( 'NONE', #286, #10, #185 ) ;
#160 = VECTOR ( 'NONE', #52, 1000.000000000000000 ) ;
#161 = ORIENTED_EDGE ( 'NONE', *, *, #276, .T. ) ;
#162 = CARTESIAN_POINT ( 'NONE',  ( 0.000000000000000000, 0.05000000000000000278, 0.000000000000000000 ) ) ;
#163 = FACE_OUTER_BOUND ( 'NONE', #90, .T. ) ;
#164 = VERTEX_POINT ( 'NONE', #169 ) ;
#165 = LOCAL_TIME ( 14, 48, 56.00000000000000000, #294 ) ;
#166 = CC_DESIGN_PERSON_AND_ORGANIZATION_ASSIGNMENT ( #291, #118, ( #61 ) ) ;
#167 = LINE ( 'NONE', #121, #160 ) ;
#168 = APPROVAL_STATUS ( 'not_yet_approved' ) ;
#169 = CARTESIAN_POINT ( 'NONE',  ( -1.500000000000000444, 0.000000000000000000, -0.03750000000000000555 ) ) ;
#170 = APPROVAL_DATE_TIME ( #263, #221 ) ;
#171 = EDGE_CURVE ( 'NONE', #113, #94, #99, .T. ) ;
#172 = FACE_OUTER_BOUND ( 'NONE', #277, .T. ) ;
#173 = CC_DESIGN_APPROVAL ( #301, ( #103 ) ) ;
#174 = DIRECTION ( 'NONE',  ( 0.000000000000000000, 0.000000000000000000, 1.000000000000000000 ) ) ;
#175 = CARTESIAN_POINT ( 'NONE',  ( 5.817072295949927426E-16, 0.05000000000000000278, 4.750000000000000000 ) ) ;
#176 = EDGE_CURVE ( 'NONE', #113, #278, #123, .T. ) ;
#177 = CARTESIAN_POINT ( 'NONE',  ( 1.499999999999999556, 0.05000000000000000278, -0.03750000000000000555 ) ) ;
#178 = VERTEX_POINT ( 'NONE', #300 ) ;
#179 = PRODUCT_DEFINITION_SHAPE ( 'NONE', 'NONE',  #103 ) ;
#180 = AXIS2_PLACEMENT_3D ( 'NONE', #59, #80, #150 ) ;
#181 = ORIENTED_EDGE ( 'NONE', *, *, #149, .F. ) ;
#182 = PERSON_AND_ORGANIZATION ( #23, #129 ) ;
#183 = VERTEX_POINT ( 'NONE', #274 ) ;
#184 = EDGE_CURVE ( 'NONE', #63, #236, #197, .T. ) ;
#185 = DIRECTION ( 'NONE',  ( 1.000000000000000000, 0.000000000000000000, -0.000000000000000000 ) ) ;
#186 = AXIS2_PLACEMENT_3D ( 'NONE', #57, #13, #174 ) ;
#187 = CARTESIAN_POINT ( 'NONE',  ( -1.500000000000000444, 0.05000000000000000278, 0.03749999999999999167 ) ) ;
#188 = DATE_AND_TIME ( #145, #165 ) ;
#189 = CARTESIAN_POINT ( 'NONE',  ( 0.000000000000000000, 0.000000000000000000, -4.750000000000000000 ) ) ;
#190 = PERSON_AND_ORGANIZATION_ROLE ( 'creator' ) ;
#191 = ORIENTED_EDGE ( 'NONE', *, *, #111, .T. ) ;
#192 = LINE ( 'NONE', #283, #284 ) ;
#193 = DATE_AND_TIME ( #214, #297 ) ;
#194 = FACE_OUTER_BOUND ( 'NONE', #250, .T. ) ;
#195 = ADVANCED_FACE ( 'NONE', ( #172 ), #151, .T. ) ;
#196 = CARTESIAN_POINT ( 'NONE',  ( 0.000000000000000000, 0.05000000000000000278, 0.000000000000000000 ) ) ;
#197 = LINE ( 'NONE', #246, #211 ) ;
#198 = DIRECTION ( 'NONE',  ( 0.000000000000000000, 1.000000000000000000, 0.000000000000000000 ) ) ;
#199 = MANIFOLD_SOLID_BREP ( 'Í¹Ì¨-À­Éì1', #309 ) ;
#200 = AXIS2_PLACEMENT_3D ( 'NONE', #242, #139, #238 ) ;
#201 = COORDINATED_UNIVERSAL_TIME_OFFSET ( 8, 0, .AHEAD. ) ;
#202 = ORIENTED_EDGE ( 'NONE', *, *, #7, .F. ) ;
#203 = ADVANCED_FACE ( 'NONE', ( #54, #104 ), #270, .T. ) ;
#204 = ORIENTED_EDGE ( 'NONE', *, *, #171, .F. ) ;
#205 = ORIENTED_EDGE ( 'NONE', *, *, #267, .F. ) ;
#206 = CC_DESIGN_APPROVAL ( #221, ( #61 ) ) ;
#207 = EDGE_CURVE ( 'NONE', #40, #183, #98, .T. ) ;
#208 = ORIENTED_EDGE ( 'NONE', *, *, #111, .F. ) ;
#209 = ORIENTED_EDGE ( 'NONE', *, *, #285, .F. ) ;
#210 = COORDINATED_UNIVERSAL_TIME_OFFSET ( 8, 0, .AHEAD. ) ;
#211 = VECTOR ( 'NONE', #295, 1000.000000000000000 ) ;
#212 = DIRECTION ( 'NONE',  ( 0.000000000000000000, 0.000000000000000000, -1.000000000000000000 ) ) ;
#213 = ADVANCED_FACE ( 'NONE', ( #194, #38 ), #244, .F. ) ;
#214 = CALENDAR_DATE ( 2024, 29, 5 ) ;
#215 = PLANE ( 'NONE',  #159 ) ;
#216 = DATE_TIME_ROLE ( 'creation_date' ) ;
#217 = LINE ( 'NONE', #14, #70 ) ;
#218 = APPROVAL_ROLE ( '' ) ;
#219 = CARTESIAN_POINT ( 'NONE',  ( 5.817072295949927426E-16, 0.000000000000000000, 4.750000000000000000 ) ) ;
#220 = CIRCLE ( 'NONE', #200, 4.750000000000000000 ) ;
#221 = APPROVAL ( #168, 'Î´Ö¸¶¨' ) ;
#222 = CARTESIAN_POINT ( 'NONE',  ( -1.500000000000000444, 0.05000000000000000278, 0.03749999999999999167 ) ) ;
#223 = CARTESIAN_POINT ( 'NONE',  ( -1.500000000000000444, 0.05000000000000000278, -0.03750000000000000555 ) ) ;
#224 = CARTESIAN_POINT ( 'NONE',  ( 0.000000000000000000, 0.000000000000000000, 0.000000000000000000 ) ) ;
#225 = LOCAL_TIME ( 14, 48, 56.00000000000000000, #201 ) ;
#226 = CARTESIAN_POINT ( 'NONE',  ( 0.000000000000000000, 0.05000000000000000278, 0.000000000000000000 ) ) ;
#227 = LINE ( 'NONE', #177, #147 ) ;
#228 = PERSON_AND_ORGANIZATION ( #23, #129 ) ;
#229 = ORIENTED_EDGE ( 'NONE', *, *, #249, .T. ) ;
#230 = APPROVAL ( #9, 'Î´Ö¸¶¨' ) ;
#231 = AXIS2_PLACEMENT_3D ( 'NONE', #226, #198, #245 ) ;
#232 = ORIENTED_EDGE ( 'NONE', *, *, #135, .F. ) ;
#233 = ORIENTED_EDGE ( 'NONE', *, *, #276, .F. ) ;
#234 = ORIENTED_EDGE ( 'NONE', *, *, #157, .F. ) ;
#235 = LINE ( 'NONE', #119, #55 ) ;
#236 = VERTEX_POINT ( 'NONE', #105 ) ;
#237 = PRODUCT_DEFINITION_FORMATION_WITH_SPECIFIED_SOURCE ( 'ÈÎºÎ', '', #281, .NOT_KNOWN. ) ;
#238 = DIRECTION ( 'NONE',  ( 0.000000000000000000, 0.000000000000000000, 1.000000000000000000 ) ) ;
#239 = DIRECTION ( 'NONE',  ( -1.000000000000000000, 0.000000000000000000, 0.000000000000000000 ) ) ;
#240 = CALENDAR_DATE ( 2024, 29, 5 ) ;
#241 = EDGE_CURVE ( 'NONE', #63, #178, #62, .T. ) ;
#242 = CARTESIAN_POINT ( 'NONE',  ( 0.000000000000000000, 0.000000000000000000, 0.000000000000000000 ) ) ;
#243 = AXIS2_PLACEMENT_3D ( 'NONE', #224, #35, #101 ) ;
#244 = PLANE ( 'NONE',  #243 ) ;
#245 = DIRECTION ( 'NONE',  ( 0.000000000000000000, -0.000000000000000000, 1.000000000000000000 ) ) ;
#246 = CARTESIAN_POINT ( 'NONE',  ( -1.500000000000000444, 0.05000000000000000278, 0.03749999999999999167 ) ) ;
#247 = DIRECTION ( 'NONE',  ( -0.000000000000000000, -1.000000000000000000, -0.000000000000000000 ) ) ;
#248 = CC_DESIGN_SECURITY_CLASSIFICATION ( #61, ( #237 ) ) ;
#249 = EDGE_CURVE ( 'NONE', #155, #63, #58, .T. ) ;
#250 = EDGE_LOOP ( 'NONE', ( #209, #202 ) ) ;
#251 =( LENGTH_UNIT ( ) NAMED_UNIT ( * ) SI_UNIT ( .MILLI., .METRE. ) );
#252 = ORIENTED_EDGE ( 'NONE', *, *, #176, .T. ) ;
#253 = VECTOR ( 'NONE', #124, 1000.000000000000000 ) ;
#254 = APPROVAL_STATUS ( 'not_yet_approved' ) ;
#255 = ORIENTED_EDGE ( 'NONE', *, *, #60, .F. ) ;
#256 = ORIENTED_EDGE ( 'NONE', *, *, #241, .F. ) ;
#257 = APPLICATION_PROTOCOL_DEFINITION ( 'international standard', 'config_control_design', 1994, #16 ) ;
#258 = ORIENTED_EDGE ( 'NONE', *, *, #152, .F. ) ;
#259 = AXIS2_PLACEMENT_3D ( 'NONE', #262, #122, #212 ) ;
#260 = CARTESIAN_POINT ( 'NONE',  ( 1.499999999999999556, 0.000000000000000000, 0.03749999999999999167 ) ) ;
#261 = PRODUCT_RELATED_PRODUCT_CATEGORY ( 'detail', '', ( #281 ) ) ;
#262 = CARTESIAN_POINT ( 'NONE',  ( 0.000000000000000000, 0.05000000000000000278, 0.000000000000000000 ) ) ;
#263 = DATE_AND_TIME ( #240, #75 ) ;
#264 = EDGE_LOOP ( 'NONE', ( #18, #20, #282, #8 ) ) ;
#265 = AXIS2_PLACEMENT_3D ( 'NONE', #95, #289, #74 ) ;
#266 = EDGE_LOOP ( 'NONE', ( #181, #234, #280, #134 ) ) ;
#267 = EDGE_CURVE ( 'NONE', #116, #183, #36, .T. ) ;
#268 = PERSON_AND_ORGANIZATION ( #23, #129 ) ;
#269 = CARTESIAN_POINT ( 'NONE',  ( 5.817072295949927426E-16, 0.05000000000000000278, 4.750000000000000000 ) ) ;
#270 = PLANE ( 'NONE',  #231 ) ;
#271 = PERSON_AND_ORGANIZATION ( #23, #129 ) ;
#272 = DIRECTION ( 'NONE',  ( 0.000000000000000000, 0.000000000000000000, 1.000000000000000000 ) ) ;
#273 = DIRECTION ( 'NONE',  ( 0.000000000000000000, 0.000000000000000000, 1.000000000000000000 ) ) ;
#274 = CARTESIAN_POINT ( 'NONE',  ( 1.499999999999999556, 0.000000000000000000, -0.03750000000000000555 ) ) ;
#275 = VECTOR ( 'NONE', #298, 1000.000000000000000 ) ;
#276 = EDGE_CURVE ( 'NONE', #278, #113, #117, .T. ) ;
#277 = EDGE_LOOP ( 'NONE', ( #44, #303, #229, #109 ) ) ;
#278 = VERTEX_POINT ( 'NONE', #153 ) ;
#279 = VECTOR ( 'NONE', #273, 1000.000000000000000 ) ;
#280 = ORIENTED_EDGE ( 'NONE', *, *, #184, .F. ) ;
#281 = PRODUCT ( '1.5.4.8-ZXG-9.5-75', '1.5.4.8-ZXG-9.5-75', '', ( #306 ) ) ;
#282 = ORIENTED_EDGE ( 'NONE', *, *, #106, .T. ) ;
#283 = CARTESIAN_POINT ( 'NONE',  ( 0.000000000000000000, 0.05000000000000000278, -4.750000000000000000 ) ) ;
#284 = VECTOR ( 'NONE', #46, 1000.000000000000000 ) ;
#285 = EDGE_CURVE ( 'NONE', #68, #94, #92, .T. ) ;
#286 = CARTESIAN_POINT ( 'NONE',  ( -1.500000000000000444, 0.05000000000000000278, -0.03750000000000000555 ) ) ;
#287 = DATE_AND_TIME ( #143, #65 ) ;
#288 = DIRECTION ( 'NONE',  ( -0.000000000000000000, -1.000000000000000000, -0.000000000000000000 ) ) ;
#289 = DIRECTION ( 'NONE',  ( 0.000000000000000000, 0.000000000000000000, -1.000000000000000000 ) ) ;
#290 = DESIGN_CONTEXT ( 'detailed design', #100, 'design' ) ;
#291 = PERSON_AND_ORGANIZATION ( #23, #129 ) ;
#292 = VECTOR ( 'NONE', #71, 1000.000000000000000 ) ;
#293 = DIRECTION ( 'NONE',  ( -0.000000000000000000, -1.000000000000000000, -0.000000000000000000 ) ) ;
#294 = COORDINATED_UNIVERSAL_TIME_OFFSET ( 8, 0, .AHEAD. ) ;
#295 = DIRECTION ( 'NONE',  ( 1.000000000000000000, 0.000000000000000000, 0.000000000000000000 ) ) ;
#296 = DIRECTION ( 'NONE',  ( 0.000000000000000000, 1.000000000000000000, 0.000000000000000000 ) ) ;
#297 = LOCAL_TIME ( 14, 48, 56.00000000000000000, #50 ) ;
#298 = DIRECTION ( 'NONE',  ( -0.000000000000000000, -1.000000000000000000, -0.000000000000000000 ) ) ;
#299 = DIRECTION ( 'NONE',  ( -0.000000000000000000, -1.000000000000000000, -0.000000000000000000 ) ) ;
#300 = CARTESIAN_POINT ( 'NONE',  ( -1.500000000000000444, 0.000000000000000000, 0.03749999999999999167 ) ) ;
#301 = APPROVAL ( #254, 'Î´Ö¸¶¨' ) ;
#302 =( NAMED_UNIT ( * ) PLANE_ANGLE_UNIT ( ) SI_UNIT ( $, .RADIAN. ) );
#303 = ORIENTED_EDGE ( 'NONE', *, *, #1, .F. ) ;
#304 = DIRECTION ( 'NONE',  ( 0.000000000000000000, 0.000000000000000000, 1.000000000000000000 ) ) ;
#305 = ORIENTED_EDGE ( 'NONE', *, *, #184, .T. ) ;
#306 = MECHANICAL_CONTEXT ( 'NONE', #16, 'mechanical' ) ;
#307 = CC_DESIGN_DATE_AND_TIME_ASSIGNMENT ( #188, #5, ( #61 ) ) ;
#308 = EDGE_LOOP ( 'NONE', ( #2, #110, #108, #208 ) ) ;
#309 = CLOSED_SHELL ( 'NONE', ( #115, #203, #213, #21, #53, #97, #195, #120 ) ) ;
#310 = CARTESIAN_POINT ( 'NONE',  ( 0.000000000000000000, 0.000000000000000000, 0.000000000000000000 ) ) ;
#311 = ORIENTED_EDGE ( 'NONE', *, *, #285, .T. ) ;
ENDSEC;
END-ISO-10303-21;
