ISO-10303-21;
HEADER;
FILE_DESCRIPTION (( 'STEP AP214' ),
    '1' );
FILE_NAME ('190162.STEP',
    '2019-07-18T08:16:19',
    ( 'user' ),
    ( 'Î¢ÈíÖÐ¹ú' ),
    'SwSTEP 2.0',
    'SolidWorks 2016',
    '' );
FILE_SCHEMA (( 'AUTOMOTIVE_DESIGN' ));
ENDSEC;

DATA;
#1 = AXIS2_PLACEMENT_3D ( 'NONE', #70, #46, #112 ) ;
#2 = UNCERTAINTY_MEASURE_WITH_UNIT (LENGTH_MEASURE( 1.000000000000000100E-005 ), #4, 'distance_accuracy_value', 'NONE');
#3 = DIRECTION ( 'NONE',  ( -0.0000000000000000000, -0.0000000000000000000, -1.000000000000000000 ) ) ;
#4 =( LENGTH_UNIT ( ) NAMED_UNIT ( * ) SI_UNIT ( .MILLI., .METRE. ) );
#5 = LINE ( 'NONE', #37, #75 ) ;
#6 = DIRECTION ( 'NONE',  ( -1.000000000000000000, 0.0000000000000000000, 0.0000000000000000000 ) ) ;
#7 = CIRCLE ( 'NONE', #40, 5.000000000000000000 ) ;
#8 = ADVANCED_BREP_SHAPE_REPRESENTATION ( '190162', ( #108, #85 ), #32 ) ;
#9 = DIRECTION ( 'NONE',  ( 0.0000000000000000000, 0.0000000000000000000, 1.000000000000000000 ) ) ;
#10 = PRESENTATION_LAYER_ASSIGNMENT (  '', '', ( #132 ) ) ;
#11 = DIRECTION ( 'NONE',  ( 1.000000000000000000, 0.0000000000000000000, 0.0000000000000000000 ) ) ;
#12 = DIRECTION ( 'NONE',  ( 0.0000000000000000000, 0.0000000000000000000, 1.000000000000000000 ) ) ;
#13 = ORIENTED_EDGE ( 'NONE', *, *, #130, .F. ) ;
#14 = EDGE_LOOP ( 'NONE', ( #51, #128 ) ) ;
#15 = PRODUCT_CONTEXT ( 'NONE', #38, 'mechanical' ) ;
#16 = AXIS2_PLACEMENT_3D ( 'NONE', #25, #33, #6 ) ;
#17 = EDGE_CURVE ( 'NONE', #18, #78, #89, .T. ) ;
#18 = VERTEX_POINT ( 'NONE', #76 ) ;
#19 = CLOSED_SHELL ( 'NONE', ( #28, #54, #67, #29 ) ) ;
#20 = MECHANICAL_DESIGN_GEOMETRIC_PRESENTATION_REPRESENTATION (  '', ( #132 ), #27 ) ;
#21 = LINE ( 'NONE', #83, #43 ) ;
#22 = ORIENTED_EDGE ( 'NONE', *, *, #130, .T. ) ;
#23 = DIRECTION ( 'NONE',  ( 1.000000000000000000, 0.0000000000000000000, 0.0000000000000000000 ) ) ;
#24 = CARTESIAN_POINT ( 'NONE',  ( 0.0000000000000000000, 0.0000000000000000000, 0.0000000000000000000 ) ) ;
#25 = CARTESIAN_POINT ( 'NONE',  ( 0.0000000000000000000, 0.0000000000000000000, 1.000000000000000000 ) ) ;
#26 = APPLICATION_PROTOCOL_DEFINITION ( 'draft international standard', 'automotive_design', 1998, #106 ) ;
#27 =( GEOMETRIC_REPRESENTATION_CONTEXT ( 3 ) GLOBAL_UNCERTAINTY_ASSIGNED_CONTEXT ( ( #58 ) ) GLOBAL_UNIT_ASSIGNED_CONTEXT ( ( #105, #42, #109 ) ) REPRESENTATION_CONTEXT ( 'NONE', 'WORKASPACE' ) );
#28 = ADVANCED_FACE ( 'NONE', ( #64 ), #115, .T. ) ;
#29 = ADVANCED_FACE ( 'NONE', ( #97 ), #79, .F. ) ;
#30 = APPLICATION_PROTOCOL_DEFINITION ( 'draft international standard', 'automotive_design', 1998, #38 ) ;
#31 = PRESENTATION_STYLE_ASSIGNMENT (( #49 ) ) ;
#32 =( GEOMETRIC_REPRESENTATION_CONTEXT ( 3 ) GLOBAL_UNCERTAINTY_ASSIGNED_CONTEXT ( ( #35 ) ) GLOBAL_UNIT_ASSIGNED_CONTEXT ( ( #87, #72, #90 ) ) REPRESENTATION_CONTEXT ( 'NONE', 'WORKASPACE' ) );
#33 = DIRECTION ( 'NONE',  ( -0.0000000000000000000, -0.0000000000000000000, -1.000000000000000000 ) ) ;
#34 = AXIS2_PLACEMENT_3D ( 'NONE', #24, #129, #114 ) ;
#35 = UNCERTAINTY_MEASURE_WITH_UNIT (LENGTH_MEASURE( 1.000000000000000100E-005 ), #87, 'distance_accuracy_value', 'NONE');
#36 = CIRCLE ( 'NONE', #57, 5.000000000000000000 ) ;
#37 = CARTESIAN_POINT ( 'NONE',  ( -5.000000000000000000, 0.0000000000000000000, 1.000000000000000000 ) ) ;
#38 = APPLICATION_CONTEXT ( 'automotive_design' ) ;
#39 = ORIENTED_EDGE ( 'NONE', *, *, #111, .T. ) ;
#40 = AXIS2_PLACEMENT_3D ( 'NONE', #92, #9, #23 ) ;
#41 = EDGE_CURVE ( 'NONE', #78, #18, #36, .T. ) ;
#42 =( NAMED_UNIT ( * ) PLANE_ANGLE_UNIT ( ) SI_UNIT ( $, .RADIAN. ) );
#43 = VECTOR ( 'NONE', #3, 1000.000000000000000 ) ;
#44 = CARTESIAN_POINT ( 'NONE',  ( 0.0000000000000000000, 0.0000000000000000000, 0.0000000000000000000 ) ) ;
#45 = ORIENTED_EDGE ( 'NONE', *, *, #111, .F. ) ;
#46 = DIRECTION ( 'NONE',  ( 0.0000000000000000000, 0.0000000000000000000, 1.000000000000000000 ) ) ;
#47 = STYLED_ITEM ( 'NONE', ( #120 ), #8 ) ;
#48 = ORIENTED_EDGE ( 'NONE', *, *, #55, .T. ) ;
#49 = SURFACE_STYLE_USAGE ( .BOTH. , #69 ) ;
#50 = EDGE_CURVE ( 'NONE', #94, #131, #7, .T. ) ;
#51 = ORIENTED_EDGE ( 'NONE', *, *, #17, .F. ) ;
#52 = DIRECTION ( 'NONE',  ( -0.0000000000000000000, -0.0000000000000000000, -1.000000000000000000 ) ) ;
#53 = PRESENTATION_LAYER_ASSIGNMENT (  '', '', ( #47 ) ) ;
#54 = ADVANCED_FACE ( 'NONE', ( #86 ), #110, .T. ) ;
#55 = EDGE_CURVE ( 'NONE', #131, #94, #140, .T. ) ;
#56 = CARTESIAN_POINT ( 'NONE',  ( 5.000000000000000000, 6.123233995736766300E-016, 1.000000000000000000 ) ) ;
#57 = AXIS2_PLACEMENT_3D ( 'NONE', #125, #101, #135 ) ;
#58 = UNCERTAINTY_MEASURE_WITH_UNIT (LENGTH_MEASURE( 1.000000000000000100E-005 ), #105, 'distance_accuracy_value', 'NONE');
#59 = COLOUR_RGB ( '',1.000000000000000000, 1.000000000000000000, 1.000000000000000000 ) ;
#60 = MECHANICAL_DESIGN_GEOMETRIC_PRESENTATION_REPRESENTATION (  '', ( #47 ), #66 ) ;
#61 = ORIENTED_EDGE ( 'NONE', *, *, #17, .T. ) ;
#62 = SURFACE_STYLE_FILL_AREA ( #98 ) ;
#63 = CARTESIAN_POINT ( 'NONE',  ( 0.0000000000000000000, 0.0000000000000000000, 1.000000000000000000 ) ) ;
#64 = FACE_OUTER_BOUND ( 'NONE', #123, .T. ) ;
#65 = DIRECTION ( 'NONE',  ( 1.000000000000000000, 0.0000000000000000000, 0.0000000000000000000 ) ) ;
#66 =( GEOMETRIC_REPRESENTATION_CONTEXT ( 3 ) GLOBAL_UNCERTAINTY_ASSIGNED_CONTEXT ( ( #2 ) ) GLOBAL_UNIT_ASSIGNED_CONTEXT ( ( #4, #134, #104 ) ) REPRESENTATION_CONTEXT ( 'NONE', 'WORKASPACE' ) );
#67 = ADVANCED_FACE ( 'NONE', ( #119 ), #73, .T. ) ;
#68 = EDGE_LOOP ( 'NONE', ( #13, #93, #39, #61 ) ) ;
#69 = SURFACE_SIDE_STYLE ('',( #62 ) ) ;
#70 = CARTESIAN_POINT ( 'NONE',  ( 0.0000000000000000000, 0.0000000000000000000, 0.0000000000000000000 ) ) ;
#71 = ORIENTED_EDGE ( 'NONE', *, *, #55, .F. ) ;
#72 =( NAMED_UNIT ( * ) PLANE_ANGLE_UNIT ( ) SI_UNIT ( $, .RADIAN. ) );
#73 = PLANE ( 'NONE',  #138 ) ;
#74 = FILL_AREA_STYLE_COLOUR ( '', #59 ) ;
#75 = VECTOR ( 'NONE', #127, 1000.000000000000000 ) ;
#76 = CARTESIAN_POINT ( 'NONE',  ( -5.000000000000000000, 0.0000000000000000000, 0.0000000000000000000 ) ) ;
#77 = SURFACE_STYLE_FILL_AREA ( #88 ) ;
#78 = VERTEX_POINT ( 'NONE', #136 ) ;
#79 = PLANE ( 'NONE',  #1 ) ;
#80 = DIRECTION ( 'NONE',  ( 0.0000000000000000000, 0.0000000000000000000, 1.000000000000000000 ) ) ;
#81 = CARTESIAN_POINT ( 'NONE',  ( 0.0000000000000000000, 0.0000000000000000000, 1.000000000000000000 ) ) ;
#82 = PRODUCT_DEFINITION_SHAPE ( 'NONE', 'NONE',  #91 ) ;
#83 = CARTESIAN_POINT ( 'NONE',  ( 5.000000000000000000, 6.123233995736766300E-016, 1.000000000000000000 ) ) ;
#84 = PRODUCT ( '190162', '190162', '', ( #15 ) ) ;
#85 = AXIS2_PLACEMENT_3D ( 'NONE', #44, #139, #65 ) ;
#86 = FACE_OUTER_BOUND ( 'NONE', #68, .T. ) ;
#87 =( LENGTH_UNIT ( ) NAMED_UNIT ( * ) SI_UNIT ( .MILLI., .METRE. ) );
#88 = FILL_AREA_STYLE ('',( #121 ) ) ;
#89 = CIRCLE ( 'NONE', #34, 5.000000000000000000 ) ;
#90 =( NAMED_UNIT ( * ) SI_UNIT ( $, .STERADIAN. ) SOLID_ANGLE_UNIT ( ) );
#91 = PRODUCT_DEFINITION ( 'Î´Öª', '', #96, #118 ) ;
#92 = CARTESIAN_POINT ( 'NONE',  ( 0.0000000000000000000, 0.0000000000000000000, 1.000000000000000000 ) ) ;
#93 = ORIENTED_EDGE ( 'NONE', *, *, #50, .F. ) ;
#94 = VERTEX_POINT ( 'NONE', #102 ) ;
#95 = ORIENTED_EDGE ( 'NONE', *, *, #50, .T. ) ;
#96 = PRODUCT_DEFINITION_FORMATION_WITH_SPECIFIED_SOURCE ( 'ÈÎºÎ', '', #84, .NOT_KNOWN. ) ;
#97 = FACE_OUTER_BOUND ( 'NONE', #14, .T. ) ;
#98 = FILL_AREA_STYLE ('',( #74 ) ) ;
#99 = EDGE_LOOP ( 'NONE', ( #95, #48 ) ) ;
#100 = SURFACE_STYLE_USAGE ( .BOTH. , #122 ) ;
#101 = DIRECTION ( 'NONE',  ( 0.0000000000000000000, 0.0000000000000000000, 1.000000000000000000 ) ) ;
#102 = CARTESIAN_POINT ( 'NONE',  ( -5.000000000000000000, 0.0000000000000000000, 1.000000000000000000 ) ) ;
#103 = CARTESIAN_POINT ( 'NONE',  ( 0.0000000000000000000, 0.0000000000000000000, 1.000000000000000000 ) ) ;
#104 =( NAMED_UNIT ( * ) SI_UNIT ( $, .STERADIAN. ) SOLID_ANGLE_UNIT ( ) );
#105 =( LENGTH_UNIT ( ) NAMED_UNIT ( * ) SI_UNIT ( .MILLI., .METRE. ) );
#106 = APPLICATION_CONTEXT ( 'automotive_design' ) ;
#107 = PRODUCT_RELATED_PRODUCT_CATEGORY ( 'part', '', ( #84 ) ) ;
#108 = MANIFOLD_SOLID_BREP ( 'Í¹Ì¨-À­Éì1', #19 ) ;
#109 =( NAMED_UNIT ( * ) SI_UNIT ( $, .STERADIAN. ) SOLID_ANGLE_UNIT ( ) );
#110 = CYLINDRICAL_SURFACE ( 'NONE', #126, 5.000000000000000000 ) ;
#111 = EDGE_CURVE ( 'NONE', #94, #18, #5, .T. ) ;
#112 = DIRECTION ( 'NONE',  ( 1.000000000000000000, 0.0000000000000000000, -0.0000000000000000000 ) ) ;
#113 = SHAPE_DEFINITION_REPRESENTATION ( #82, #8 ) ;
#114 = DIRECTION ( 'NONE',  ( 1.000000000000000000, 0.0000000000000000000, 0.0000000000000000000 ) ) ;
#115 = CYLINDRICAL_SURFACE ( 'NONE', #16, 5.000000000000000000 ) ;
#116 = COLOUR_RGB ( '',1.000000000000000000, 1.000000000000000000, 1.000000000000000000 ) ;
#117 = AXIS2_PLACEMENT_3D ( 'NONE', #81, #80, #11 ) ;
#118 = PRODUCT_DEFINITION_CONTEXT ( 'detailed design', #106, 'design' ) ;
#119 = FACE_OUTER_BOUND ( 'NONE', #99, .T. ) ;
#120 = PRESENTATION_STYLE_ASSIGNMENT (( #100 ) ) ;
#121 = FILL_AREA_STYLE_COLOUR ( '', #116 ) ;
#122 = SURFACE_SIDE_STYLE ('',( #77 ) ) ;
#123 = EDGE_LOOP ( 'NONE', ( #71, #22, #133, #45 ) ) ;
#124 = DIRECTION ( 'NONE',  ( -1.000000000000000000, 0.0000000000000000000, 0.0000000000000000000 ) ) ;
#125 = CARTESIAN_POINT ( 'NONE',  ( 0.0000000000000000000, 0.0000000000000000000, 0.0000000000000000000 ) ) ;
#126 = AXIS2_PLACEMENT_3D ( 'NONE', #103, #52, #124 ) ;
#127 = DIRECTION ( 'NONE',  ( -0.0000000000000000000, -0.0000000000000000000, -1.000000000000000000 ) ) ;
#128 = ORIENTED_EDGE ( 'NONE', *, *, #41, .F. ) ;
#129 = DIRECTION ( 'NONE',  ( 0.0000000000000000000, 0.0000000000000000000, 1.000000000000000000 ) ) ;
#130 = EDGE_CURVE ( 'NONE', #131, #78, #21, .T. ) ;
#131 = VERTEX_POINT ( 'NONE', #56 ) ;
#132 = STYLED_ITEM ( 'NONE', ( #31 ), #108 ) ;
#133 = ORIENTED_EDGE ( 'NONE', *, *, #41, .T. ) ;
#134 =( NAMED_UNIT ( * ) PLANE_ANGLE_UNIT ( ) SI_UNIT ( $, .RADIAN. ) );
#135 = DIRECTION ( 'NONE',  ( 1.000000000000000000, 0.0000000000000000000, 0.0000000000000000000 ) ) ;
#136 = CARTESIAN_POINT ( 'NONE',  ( 5.000000000000000000, 6.123233995736766300E-016, 0.0000000000000000000 ) ) ;
#137 = DIRECTION ( 'NONE',  ( 1.000000000000000000, 0.0000000000000000000, -0.0000000000000000000 ) ) ;
#138 = AXIS2_PLACEMENT_3D ( 'NONE', #63, #12, #137 ) ;
#139 = DIRECTION ( 'NONE',  ( 0.0000000000000000000, 0.0000000000000000000, 1.000000000000000000 ) ) ;
#140 = CIRCLE ( 'NONE', #117, 5.000000000000000000 ) ;
ENDSEC;
END-ISO-10303-21;
