ISO-10303-21;
HEADER;
FILE_DESCRIPTION (( 'STEP AP214' ),
    '1' );
FILE_NAME ('190129.STEP',
    '2019-07-17T06:46:43',
    ( 'user' ),
    ( 'Î¢ÈíÖÐ¹ú' ),
    'SwSTEP 2.0',
    'SolidWorks 2016',
    '' );
FILE_SCHEMA (( 'AUTOMOTIVE_DESIGN' ));
ENDSEC;

DATA;
#1 = VERTEX_POINT ( 'NONE', #47 ) ;
#2 = FILL_AREA_STYLE_COLOUR ( '', #81 ) ;
#3 = VERTEX_POINT ( 'NONE', #45 ) ;
#4 = CARTESIAN_POINT ( 'NONE',  ( 0.0000000000000000000, 0.0000000000000000000, 3.000000000000000000 ) ) ;
#5 = CARTESIAN_POINT ( 'NONE',  ( 0.0000000000000000000, 0.0000000000000000000, 3.000000000000000000 ) ) ;
#6 = CYLINDRICAL_SURFACE ( 'NONE', #113, 12.69999999999999900 ) ;
#7 = PLANE ( 'NONE',  #21 ) ;
#8 = EDGE_LOOP ( 'NONE', ( #120, #20, #90, #59 ) ) ;
#9 = APPLICATION_PROTOCOL_DEFINITION ( 'draft international standard', 'automotive_design', 1998, #32 ) ;
#10 = FILL_AREA_STYLE ('',( #78 ) ) ;
#11 = VECTOR ( 'NONE', #39, 1000.000000000000000 ) ;
#12 = MECHANICAL_DESIGN_GEOMETRIC_PRESENTATION_REPRESENTATION (  '', ( #123 ), #110 ) ;
#13 = PRODUCT ( '190129', '190129', '', ( #99 ) ) ;
#14 = VERTEX_POINT ( 'NONE', #97 ) ;
#15 = PRODUCT_DEFINITION_SHAPE ( 'NONE', 'NONE',  #46 ) ;
#16 =( NAMED_UNIT ( * ) PLANE_ANGLE_UNIT ( ) SI_UNIT ( $, .RADIAN. ) );
#17 = PRESENTATION_STYLE_ASSIGNMENT (( #24 ) ) ;
#18 =( NAMED_UNIT ( * ) SI_UNIT ( $, .STERADIAN. ) SOLID_ANGLE_UNIT ( ) );
#19 = APPLICATION_CONTEXT ( 'automotive_design' ) ;
#20 = ORIENTED_EDGE ( 'NONE', *, *, #65, .F. ) ;
#21 = AXIS2_PLACEMENT_3D ( 'NONE', #89, #80, #140 ) ;
#22 = FACE_OUTER_BOUND ( 'NONE', #98, .T. ) ;
#23 = UNCERTAINTY_MEASURE_WITH_UNIT (LENGTH_MEASURE( 1.000000000000000100E-005 ), #92, 'distance_accuracy_value', 'NONE');
#24 = SURFACE_STYLE_USAGE ( .BOTH. , #101 ) ;
#25 = DIRECTION ( 'NONE',  ( 1.000000000000000000, 0.0000000000000000000, 0.0000000000000000000 ) ) ;
#26 = DIRECTION ( 'NONE',  ( 1.000000000000000000, 0.0000000000000000000, -0.0000000000000000000 ) ) ;
#27 = CIRCLE ( 'NONE', #35, 12.69999999999999900 ) ;
#28 = AXIS2_PLACEMENT_3D ( 'NONE', #127, #50, #114 ) ;
#29 = CARTESIAN_POINT ( 'NONE',  ( 12.69999999999999900, 1.555301434917138400E-015, 3.000000000000000000 ) ) ;
#30 = PRESENTATION_STYLE_ASSIGNMENT (( #139 ) ) ;
#31 = ORIENTED_EDGE ( 'NONE', *, *, #53, .T. ) ;
#32 = APPLICATION_CONTEXT ( 'automotive_design' ) ;
#33 = APPLICATION_PROTOCOL_DEFINITION ( 'draft international standard', 'automotive_design', 1998, #19 ) ;
#34 = ORIENTED_EDGE ( 'NONE', *, *, #65, .T. ) ;
#35 = AXIS2_PLACEMENT_3D ( 'NONE', #57, #73, #85 ) ;
#36 = SURFACE_STYLE_FILL_AREA ( #10 ) ;
#37 = FILL_AREA_STYLE ('',( #2 ) ) ;
#38 = CARTESIAN_POINT ( 'NONE',  ( 0.0000000000000000000, 0.0000000000000000000, 3.000000000000000000 ) ) ;
#39 = DIRECTION ( 'NONE',  ( -0.0000000000000000000, -0.0000000000000000000, -1.000000000000000000 ) ) ;
#40 = FACE_OUTER_BOUND ( 'NONE', #72, .T. ) ;
#41 = CIRCLE ( 'NONE', #60, 12.69999999999999900 ) ;
#42 = DIRECTION ( 'NONE',  ( 1.000000000000000000, 0.0000000000000000000, 0.0000000000000000000 ) ) ;
#43 = EDGE_CURVE ( 'NONE', #14, #1, #27, .T. ) ;
#44 =( NAMED_UNIT ( * ) SI_UNIT ( $, .STERADIAN. ) SOLID_ANGLE_UNIT ( ) );
#45 = CARTESIAN_POINT ( 'NONE',  ( 12.69999999999999900, 1.555301434917138400E-015, 3.000000000000000000 ) ) ;
#46 = PRODUCT_DEFINITION ( 'Î´Öª', '', #126, #83 ) ;
#47 = CARTESIAN_POINT ( 'NONE',  ( 12.69999999999999900, 1.555301434917138400E-015, 0.0000000000000000000 ) ) ;
#48 =( GEOMETRIC_REPRESENTATION_CONTEXT ( 3 ) GLOBAL_UNCERTAINTY_ASSIGNED_CONTEXT ( ( #77 ) ) GLOBAL_UNIT_ASSIGNED_CONTEXT ( ( #74, #109, #44 ) ) REPRESENTATION_CONTEXT ( 'NONE', 'WORKASPACE' ) );
#49 = CLOSED_SHELL ( 'NONE', ( #134, #79, #91, #122 ) ) ;
#50 = DIRECTION ( 'NONE',  ( 0.0000000000000000000, 0.0000000000000000000, 1.000000000000000000 ) ) ;
#51 = DIRECTION ( 'NONE',  ( -1.000000000000000000, 0.0000000000000000000, 0.0000000000000000000 ) ) ;
#52 = SURFACE_STYLE_FILL_AREA ( #37 ) ;
#53 = EDGE_CURVE ( 'NONE', #1, #14, #41, .T. ) ;
#54 = ORIENTED_EDGE ( 'NONE', *, *, #53, .F. ) ;
#55 = LINE ( 'NONE', #29, #86 ) ;
#56 =( LENGTH_UNIT ( ) NAMED_UNIT ( * ) SI_UNIT ( .MILLI., .METRE. ) );
#57 = CARTESIAN_POINT ( 'NONE',  ( 0.0000000000000000000, 0.0000000000000000000, 0.0000000000000000000 ) ) ;
#58 = DIRECTION ( 'NONE',  ( -1.000000000000000000, 0.0000000000000000000, 0.0000000000000000000 ) ) ;
#59 = ORIENTED_EDGE ( 'NONE', *, *, #43, .T. ) ;
#60 = AXIS2_PLACEMENT_3D ( 'NONE', #136, #63, #128 ) ;
#61 = PLANE ( 'NONE',  #106 ) ;
#62 = PRESENTATION_LAYER_ASSIGNMENT (  '', '', ( #123 ) ) ;
#63 = DIRECTION ( 'NONE',  ( 0.0000000000000000000, 0.0000000000000000000, 1.000000000000000000 ) ) ;
#64 = SURFACE_SIDE_STYLE ('',( #36 ) ) ;
#65 = EDGE_CURVE ( 'NONE', #87, #3, #138, .T. ) ;
#66 = SHAPE_DEFINITION_REPRESENTATION ( #15, #116 ) ;
#67 = STYLED_ITEM ( 'NONE', ( #17 ), #88 ) ;
#68 = COLOUR_RGB ( '',1.000000000000000000, 1.000000000000000000, 1.000000000000000000 ) ;
#69 = EDGE_LOOP ( 'NONE', ( #75, #54 ) ) ;
#70 = CARTESIAN_POINT ( 'NONE',  ( 0.0000000000000000000, 0.0000000000000000000, 0.0000000000000000000 ) ) ;
#71 = LINE ( 'NONE', #93, #11 ) ;
#72 = EDGE_LOOP ( 'NONE', ( #104, #132, #31, #129 ) ) ;
#73 = DIRECTION ( 'NONE',  ( 0.0000000000000000000, 0.0000000000000000000, 1.000000000000000000 ) ) ;
#74 =( LENGTH_UNIT ( ) NAMED_UNIT ( * ) SI_UNIT ( .MILLI., .METRE. ) );
#75 = ORIENTED_EDGE ( 'NONE', *, *, #43, .F. ) ;
#76 = DIRECTION ( 'NONE',  ( -0.0000000000000000000, -0.0000000000000000000, -1.000000000000000000 ) ) ;
#77 = UNCERTAINTY_MEASURE_WITH_UNIT (LENGTH_MEASURE( 1.000000000000000100E-005 ), #74, 'distance_accuracy_value', 'NONE');
#78 = FILL_AREA_STYLE_COLOUR ( '', #68 ) ;
#79 = ADVANCED_FACE ( 'NONE', ( #112 ), #107, .T. ) ;
#80 = DIRECTION ( 'NONE',  ( 0.0000000000000000000, 0.0000000000000000000, 1.000000000000000000 ) ) ;
#81 = COLOUR_RGB ( '',1.000000000000000000, 1.000000000000000000, 1.000000000000000000 ) ;
#82 = EDGE_CURVE ( 'NONE', #3, #87, #137, .T. ) ;
#83 = PRODUCT_DEFINITION_CONTEXT ( 'detailed design', #32, 'design' ) ;
#84 =( NAMED_UNIT ( * ) SI_UNIT ( $, .STERADIAN. ) SOLID_ANGLE_UNIT ( ) );
#85 = DIRECTION ( 'NONE',  ( 1.000000000000000000, 0.0000000000000000000, 0.0000000000000000000 ) ) ;
#86 = VECTOR ( 'NONE', #76, 1000.000000000000000 ) ;
#87 = VERTEX_POINT ( 'NONE', #135 ) ;
#88 = MANIFOLD_SOLID_BREP ( 'Í¹Ì¨-À­Éì1', #49 ) ;
#89 = CARTESIAN_POINT ( 'NONE',  ( 0.0000000000000000000, 0.0000000000000000000, 0.0000000000000000000 ) ) ;
#90 = ORIENTED_EDGE ( 'NONE', *, *, #121, .T. ) ;
#91 = ADVANCED_FACE ( 'NONE', ( #22 ), #61, .T. ) ;
#92 =( LENGTH_UNIT ( ) NAMED_UNIT ( * ) SI_UNIT ( .MILLI., .METRE. ) );
#93 = CARTESIAN_POINT ( 'NONE',  ( -12.69999999999999900, 0.0000000000000000000, 3.000000000000000000 ) ) ;
#94 = DIRECTION ( 'NONE',  ( 0.0000000000000000000, 0.0000000000000000000, 1.000000000000000000 ) ) ;
#95 = FACE_OUTER_BOUND ( 'NONE', #69, .T. ) ;
#96 = PRESENTATION_LAYER_ASSIGNMENT (  '', '', ( #67 ) ) ;
#97 = CARTESIAN_POINT ( 'NONE',  ( -12.69999999999999900, 0.0000000000000000000, 0.0000000000000000000 ) ) ;
#98 = EDGE_LOOP ( 'NONE', ( #34, #115 ) ) ;
#99 = PRODUCT_CONTEXT ( 'NONE', #19, 'mechanical' ) ;
#100 = AXIS2_PLACEMENT_3D ( 'NONE', #70, #108, #42 ) ;
#101 = SURFACE_SIDE_STYLE ('',( #52 ) ) ;
#102 = AXIS2_PLACEMENT_3D ( 'NONE', #4, #105, #51 ) ;
#103 = DIRECTION ( 'NONE',  ( 0.0000000000000000000, 0.0000000000000000000, 1.000000000000000000 ) ) ;
#104 = ORIENTED_EDGE ( 'NONE', *, *, #82, .F. ) ;
#105 = DIRECTION ( 'NONE',  ( -0.0000000000000000000, -0.0000000000000000000, -1.000000000000000000 ) ) ;
#106 = AXIS2_PLACEMENT_3D ( 'NONE', #119, #94, #26 ) ;
#107 = CYLINDRICAL_SURFACE ( 'NONE', #102, 12.69999999999999900 ) ;
#108 = DIRECTION ( 'NONE',  ( 0.0000000000000000000, 0.0000000000000000000, 1.000000000000000000 ) ) ;
#109 =( NAMED_UNIT ( * ) PLANE_ANGLE_UNIT ( ) SI_UNIT ( $, .RADIAN. ) );
#110 =( GEOMETRIC_REPRESENTATION_CONTEXT ( 3 ) GLOBAL_UNCERTAINTY_ASSIGNED_CONTEXT ( ( #133 ) ) GLOBAL_UNIT_ASSIGNED_CONTEXT ( ( #56, #131, #18 ) ) REPRESENTATION_CONTEXT ( 'NONE', 'WORKASPACE' ) );
#111 = MECHANICAL_DESIGN_GEOMETRIC_PRESENTATION_REPRESENTATION (  '', ( #67 ), #118 ) ;
#112 = FACE_OUTER_BOUND ( 'NONE', #8, .T. ) ;
#113 = AXIS2_PLACEMENT_3D ( 'NONE', #5, #124, #58 ) ;
#114 = DIRECTION ( 'NONE',  ( 1.000000000000000000, 0.0000000000000000000, 0.0000000000000000000 ) ) ;
#115 = ORIENTED_EDGE ( 'NONE', *, *, #82, .T. ) ;
#116 = ADVANCED_BREP_SHAPE_REPRESENTATION ( '190129', ( #88, #100 ), #48 ) ;
#117 = EDGE_CURVE ( 'NONE', #3, #1, #55, .T. ) ;
#118 =( GEOMETRIC_REPRESENTATION_CONTEXT ( 3 ) GLOBAL_UNCERTAINTY_ASSIGNED_CONTEXT ( ( #23 ) ) GLOBAL_UNIT_ASSIGNED_CONTEXT ( ( #92, #16, #84 ) ) REPRESENTATION_CONTEXT ( 'NONE', 'WORKASPACE' ) );
#119 = CARTESIAN_POINT ( 'NONE',  ( 0.0000000000000000000, 0.0000000000000000000, 3.000000000000000000 ) ) ;
#120 = ORIENTED_EDGE ( 'NONE', *, *, #117, .F. ) ;
#121 = EDGE_CURVE ( 'NONE', #87, #14, #71, .T. ) ;
#122 = ADVANCED_FACE ( 'NONE', ( #95 ), #7, .F. ) ;
#123 = STYLED_ITEM ( 'NONE', ( #30 ), #116 ) ;
#124 = DIRECTION ( 'NONE',  ( -0.0000000000000000000, -0.0000000000000000000, -1.000000000000000000 ) ) ;
#125 = AXIS2_PLACEMENT_3D ( 'NONE', #38, #103, #25 ) ;
#126 = PRODUCT_DEFINITION_FORMATION_WITH_SPECIFIED_SOURCE ( 'ÈÎºÎ', '', #13, .NOT_KNOWN. ) ;
#127 = CARTESIAN_POINT ( 'NONE',  ( 0.0000000000000000000, 0.0000000000000000000, 3.000000000000000000 ) ) ;
#128 = DIRECTION ( 'NONE',  ( 1.000000000000000000, 0.0000000000000000000, 0.0000000000000000000 ) ) ;
#129 = ORIENTED_EDGE ( 'NONE', *, *, #121, .F. ) ;
#130 = PRODUCT_RELATED_PRODUCT_CATEGORY ( 'part', '', ( #13 ) ) ;
#131 =( NAMED_UNIT ( * ) PLANE_ANGLE_UNIT ( ) SI_UNIT ( $, .RADIAN. ) );
#132 = ORIENTED_EDGE ( 'NONE', *, *, #117, .T. ) ;
#133 = UNCERTAINTY_MEASURE_WITH_UNIT (LENGTH_MEASURE( 1.000000000000000100E-005 ), #56, 'distance_accuracy_value', 'NONE');
#134 = ADVANCED_FACE ( 'NONE', ( #40 ), #6, .T. ) ;
#135 = CARTESIAN_POINT ( 'NONE',  ( -12.69999999999999900, 0.0000000000000000000, 3.000000000000000000 ) ) ;
#136 = CARTESIAN_POINT ( 'NONE',  ( 0.0000000000000000000, 0.0000000000000000000, 0.0000000000000000000 ) ) ;
#137 = CIRCLE ( 'NONE', #28, 12.69999999999999900 ) ;
#138 = CIRCLE ( 'NONE', #125, 12.69999999999999900 ) ;
#139 = SURFACE_STYLE_USAGE ( .BOTH. , #64 ) ;
#140 = DIRECTION ( 'NONE',  ( 1.000000000000000000, 0.0000000000000000000, -0.0000000000000000000 ) ) ;
ENDSEC;
END-ISO-10303-21;
