ISO-10303-21;
HEADER;
FILE_DESCRIPTION (( 'STEP AP214' ),
    '1' );
FILE_NAME ('190125.STEP',
    '2019-07-17T03:32:36',
    ( 'user' ),
    ( 'Î¢ÈíÖÐ¹ú' ),
    'SwSTEP 2.0',
    'SolidWorks 2016',
    '' );
FILE_SCHEMA (( 'AUTOMOTIVE_DESIGN' ));
ENDSEC;

DATA;
#1 = CARTESIAN_POINT ( 'NONE',  ( 0.0000000000000000000, 0.0000000000000000000, 0.0000000000000000000 ) ) ;
#2 = CLOSED_SHELL ( 'NONE', ( #41, #66, #107, #73 ) ) ;
#3 = CARTESIAN_POINT ( 'NONE',  ( -12.50000000000000000, 0.0000000000000000000, 2.000000000000000000 ) ) ;
#4 = VERTEX_POINT ( 'NONE', #37 ) ;
#5 = LINE ( 'NONE', #3, #53 ) ;
#6 = DIRECTION ( 'NONE',  ( 1.000000000000000000, 0.0000000000000000000, 0.0000000000000000000 ) ) ;
#7 = AXIS2_PLACEMENT_3D ( 'NONE', #1, #108, #18 ) ;
#8 = PRODUCT_RELATED_PRODUCT_CATEGORY ( 'part', '', ( #95 ) ) ;
#9 = PRODUCT_DEFINITION_SHAPE ( 'NONE', 'NONE',  #130 ) ;
#10 = EDGE_LOOP ( 'NONE', ( #28, #61 ) ) ;
#11 = EDGE_CURVE ( 'NONE', #4, #33, #21, .T. ) ;
#12 = UNCERTAINTY_MEASURE_WITH_UNIT (LENGTH_MEASURE( 1.000000000000000100E-005 ), #15, 'distance_accuracy_value', 'NONE');
#13 = FILL_AREA_STYLE_COLOUR ( '', #48 ) ;
#14 = PLANE ( 'NONE',  #125 ) ;
#15 =( LENGTH_UNIT ( ) NAMED_UNIT ( * ) SI_UNIT ( .MILLI., .METRE. ) );
#16 = DIRECTION ( 'NONE',  ( 1.000000000000000000, 0.0000000000000000000, -0.0000000000000000000 ) ) ;
#17 = DIRECTION ( 'NONE',  ( -1.000000000000000000, 0.0000000000000000000, 0.0000000000000000000 ) ) ;
#18 = DIRECTION ( 'NONE',  ( 1.000000000000000000, 0.0000000000000000000, 0.0000000000000000000 ) ) ;
#19 =( NAMED_UNIT ( * ) SI_UNIT ( $, .STERADIAN. ) SOLID_ANGLE_UNIT ( ) );
#20 = PRESENTATION_LAYER_ASSIGNMENT (  '', '', ( #96 ) ) ;
#21 = LINE ( 'NONE', #109, #129 ) ;
#22 = DIRECTION ( 'NONE',  ( -0.0000000000000000000, -0.0000000000000000000, -1.000000000000000000 ) ) ;
#23 = MECHANICAL_DESIGN_GEOMETRIC_PRESENTATION_REPRESENTATION (  '', ( #96 ), #30 ) ;
#24 = EDGE_LOOP ( 'NONE', ( #32, #137, #118, #82 ) ) ;
#25 = COLOUR_RGB ( '',1.000000000000000000, 1.000000000000000000, 1.000000000000000000 ) ;
#26 = APPLICATION_PROTOCOL_DEFINITION ( 'draft international standard', 'automotive_design', 1998, #110 ) ;
#27 = AXIS2_PLACEMENT_3D ( 'NONE', #128, #101, #119 ) ;
#28 = ORIENTED_EDGE ( 'NONE', *, *, #124, .F. ) ;
#29 = FILL_AREA_STYLE ('',( #114 ) ) ;
#30 =( GEOMETRIC_REPRESENTATION_CONTEXT ( 3 ) GLOBAL_UNCERTAINTY_ASSIGNED_CONTEXT ( ( #12 ) ) GLOBAL_UNIT_ASSIGNED_CONTEXT ( ( #15, #44, #126 ) ) REPRESENTATION_CONTEXT ( 'NONE', 'WORKASPACE' ) );
#31 = DIRECTION ( 'NONE',  ( 1.000000000000000000, 0.0000000000000000000, 0.0000000000000000000 ) ) ;
#32 = ORIENTED_EDGE ( 'NONE', *, *, #11, .F. ) ;
#33 = VERTEX_POINT ( 'NONE', #60 ) ;
#34 =( LENGTH_UNIT ( ) NAMED_UNIT ( * ) SI_UNIT ( .MILLI., .METRE. ) );
#35 = AXIS2_PLACEMENT_3D ( 'NONE', #131, #39, #77 ) ;
#36 = SHAPE_DEFINITION_REPRESENTATION ( #9, #55 ) ;
#37 = CARTESIAN_POINT ( 'NONE',  ( 12.50000000000000000, 1.530808498934191500E-015, 2.000000000000000000 ) ) ;
#38 = DIRECTION ( 'NONE',  ( 0.0000000000000000000, 0.0000000000000000000, 1.000000000000000000 ) ) ;
#39 = DIRECTION ( 'NONE',  ( 0.0000000000000000000, 0.0000000000000000000, 1.000000000000000000 ) ) ;
#40 = SURFACE_SIDE_STYLE ('',( #99 ) ) ;
#41 = ADVANCED_FACE ( 'NONE', ( #140 ), #54, .T. ) ;
#42 = DIRECTION ( 'NONE',  ( -0.0000000000000000000, -0.0000000000000000000, -1.000000000000000000 ) ) ;
#43 = UNCERTAINTY_MEASURE_WITH_UNIT (LENGTH_MEASURE( 1.000000000000000100E-005 ), #91, 'distance_accuracy_value', 'NONE');
#44 =( NAMED_UNIT ( * ) PLANE_ANGLE_UNIT ( ) SI_UNIT ( $, .RADIAN. ) );
#45 = EDGE_CURVE ( 'NONE', #33, #116, #84, .T. ) ;
#46 = AXIS2_PLACEMENT_3D ( 'NONE', #62, #42, #17 ) ;
#47 = PRESENTATION_STYLE_ASSIGNMENT (( #86 ) ) ;
#48 = COLOUR_RGB ( '',1.000000000000000000, 1.000000000000000000, 1.000000000000000000 ) ;
#49 = DIRECTION ( 'NONE',  ( 0.0000000000000000000, 0.0000000000000000000, 1.000000000000000000 ) ) ;
#50 = CARTESIAN_POINT ( 'NONE',  ( -12.50000000000000000, 0.0000000000000000000, 2.000000000000000000 ) ) ;
#51 = AXIS2_PLACEMENT_3D ( 'NONE', #70, #120, #31 ) ;
#52 = ORIENTED_EDGE ( 'NONE', *, *, #11, .T. ) ;
#53 = VECTOR ( 'NONE', #134, 1000.000000000000000 ) ;
#54 = CYLINDRICAL_SURFACE ( 'NONE', #27, 12.50000000000000000 ) ;
#55 = ADVANCED_BREP_SHAPE_REPRESENTATION ( '190125', ( #81, #123 ), #64 ) ;
#56 = VERTEX_POINT ( 'NONE', #50 ) ;
#57 = FACE_OUTER_BOUND ( 'NONE', #10, .T. ) ;
#58 = AXIS2_PLACEMENT_3D ( 'NONE', #79, #133, #16 ) ;
#59 = ORIENTED_EDGE ( 'NONE', *, *, #93, .F. ) ;
#60 = CARTESIAN_POINT ( 'NONE',  ( 12.50000000000000000, 1.530808498934191500E-015, 0.0000000000000000000 ) ) ;
#61 = ORIENTED_EDGE ( 'NONE', *, *, #45, .F. ) ;
#62 = CARTESIAN_POINT ( 'NONE',  ( 0.0000000000000000000, 0.0000000000000000000, 2.000000000000000000 ) ) ;
#63 = UNCERTAINTY_MEASURE_WITH_UNIT (LENGTH_MEASURE( 1.000000000000000100E-005 ), #34, 'distance_accuracy_value', 'NONE');
#64 =( GEOMETRIC_REPRESENTATION_CONTEXT ( 3 ) GLOBAL_UNCERTAINTY_ASSIGNED_CONTEXT ( ( #43 ) ) GLOBAL_UNIT_ASSIGNED_CONTEXT ( ( #91, #102, #69 ) ) REPRESENTATION_CONTEXT ( 'NONE', 'WORKASPACE' ) );
#65 = EDGE_CURVE ( 'NONE', #56, #4, #111, .T. ) ;
#66 = ADVANCED_FACE ( 'NONE', ( #75 ), #104, .T. ) ;
#67 = CIRCLE ( 'NONE', #35, 12.50000000000000000 ) ;
#68 = ORIENTED_EDGE ( 'NONE', *, *, #138, .F. ) ;
#69 =( NAMED_UNIT ( * ) SI_UNIT ( $, .STERADIAN. ) SOLID_ANGLE_UNIT ( ) );
#70 = CARTESIAN_POINT ( 'NONE',  ( 0.0000000000000000000, 0.0000000000000000000, 0.0000000000000000000 ) ) ;
#71 = SURFACE_STYLE_FILL_AREA ( #92 ) ;
#72 = SURFACE_STYLE_USAGE ( .BOTH. , #97 ) ;
#73 = ADVANCED_FACE ( 'NONE', ( #57 ), #14, .F. ) ;
#74 = ORIENTED_EDGE ( 'NONE', *, *, #65, .T. ) ;
#75 = FACE_OUTER_BOUND ( 'NONE', #24, .T. ) ;
#76 = STYLED_ITEM ( 'NONE', ( #47 ), #55 ) ;
#77 = DIRECTION ( 'NONE',  ( 1.000000000000000000, 0.0000000000000000000, 0.0000000000000000000 ) ) ;
#78 = DIRECTION ( 'NONE',  ( 1.000000000000000000, 0.0000000000000000000, 0.0000000000000000000 ) ) ;
#79 = CARTESIAN_POINT ( 'NONE',  ( 0.0000000000000000000, 0.0000000000000000000, 2.000000000000000000 ) ) ;
#81 = MANIFOLD_SOLID_BREP ( 'Í¹Ì¨-À­Éì1', #2 ) ;
#80 = CARTESIAN_POINT ( 'NONE',  ( 0.0000000000000000000, 0.0000000000000000000, 2.000000000000000000 ) ) ;
#82 = ORIENTED_EDGE ( 'NONE', *, *, #124, .T. ) ;
#83 = DIRECTION ( 'NONE',  ( 0.0000000000000000000, 0.0000000000000000000, 1.000000000000000000 ) ) ;
#84 = CIRCLE ( 'NONE', #7, 12.50000000000000000 ) ;
#85 = CARTESIAN_POINT ( 'NONE',  ( -12.50000000000000000, 0.0000000000000000000, 0.0000000000000000000 ) ) ;
#86 = SURFACE_STYLE_USAGE ( .BOTH. , #40 ) ;
#87 = PRESENTATION_LAYER_ASSIGNMENT (  '', '', ( #76 ) ) ;
#88 = APPLICATION_CONTEXT ( 'automotive_design' ) ;
#89 = EDGE_LOOP ( 'NONE', ( #74, #94 ) ) ;
#90 = CIRCLE ( 'NONE', #51, 12.50000000000000000 ) ;
#91 =( LENGTH_UNIT ( ) NAMED_UNIT ( * ) SI_UNIT ( .MILLI., .METRE. ) );
#92 = FILL_AREA_STYLE ('',( #13 ) ) ;
#93 = EDGE_CURVE ( 'NONE', #4, #56, #67, .T. ) ;
#94 = ORIENTED_EDGE ( 'NONE', *, *, #93, .T. ) ;
#95 = PRODUCT ( '190125', '190125', '', ( #122 ) ) ;
#96 = STYLED_ITEM ( 'NONE', ( #115 ), #81 ) ;
#97 = SURFACE_SIDE_STYLE ('',( #71 ) ) ;
#98 = MECHANICAL_DESIGN_GEOMETRIC_PRESENTATION_REPRESENTATION (  '', ( #76 ), #103 ) ;
#99 = SURFACE_STYLE_FILL_AREA ( #29 ) ;
#100 =( NAMED_UNIT ( * ) PLANE_ANGLE_UNIT ( ) SI_UNIT ( $, .RADIAN. ) );
#101 = DIRECTION ( 'NONE',  ( -0.0000000000000000000, -0.0000000000000000000, -1.000000000000000000 ) ) ;
#102 =( NAMED_UNIT ( * ) PLANE_ANGLE_UNIT ( ) SI_UNIT ( $, .RADIAN. ) );
#103 =( GEOMETRIC_REPRESENTATION_CONTEXT ( 3 ) GLOBAL_UNCERTAINTY_ASSIGNED_CONTEXT ( ( #63 ) ) GLOBAL_UNIT_ASSIGNED_CONTEXT ( ( #34, #100, #19 ) ) REPRESENTATION_CONTEXT ( 'NONE', 'WORKASPACE' ) );
#104 = CYLINDRICAL_SURFACE ( 'NONE', #46, 12.50000000000000000 ) ;
#105 = DIRECTION ( 'NONE',  ( 1.000000000000000000, 0.0000000000000000000, -0.0000000000000000000 ) ) ;
#106 = CARTESIAN_POINT ( 'NONE',  ( 0.0000000000000000000, 0.0000000000000000000, 0.0000000000000000000 ) ) ;
#107 = ADVANCED_FACE ( 'NONE', ( #136 ), #112, .T. ) ;
#108 = DIRECTION ( 'NONE',  ( 0.0000000000000000000, 0.0000000000000000000, 1.000000000000000000 ) ) ;
#109 = CARTESIAN_POINT ( 'NONE',  ( 12.50000000000000000, 1.530808498934191500E-015, 2.000000000000000000 ) ) ;
#110 = APPLICATION_CONTEXT ( 'automotive_design' ) ;
#111 = CIRCLE ( 'NONE', #127, 12.50000000000000000 ) ;
#112 = PLANE ( 'NONE',  #58 ) ;
#113 = PRODUCT_DEFINITION_CONTEXT ( 'detailed design', #110, 'design' ) ;
#114 = FILL_AREA_STYLE_COLOUR ( '', #25 ) ;
#115 = PRESENTATION_STYLE_ASSIGNMENT (( #72 ) ) ;
#116 = VERTEX_POINT ( 'NONE', #85 ) ;
#117 = CARTESIAN_POINT ( 'NONE',  ( 0.0000000000000000000, 0.0000000000000000000, 0.0000000000000000000 ) ) ;
#118 = ORIENTED_EDGE ( 'NONE', *, *, #138, .T. ) ;
#119 = DIRECTION ( 'NONE',  ( -1.000000000000000000, 0.0000000000000000000, 0.0000000000000000000 ) ) ;
#120 = DIRECTION ( 'NONE',  ( 0.0000000000000000000, 0.0000000000000000000, 1.000000000000000000 ) ) ;
#121 = EDGE_LOOP ( 'NONE', ( #59, #52, #135, #68 ) ) ;
#122 = PRODUCT_CONTEXT ( 'NONE', #88, 'mechanical' ) ;
#123 = AXIS2_PLACEMENT_3D ( 'NONE', #117, #38, #78 ) ;
#124 = EDGE_CURVE ( 'NONE', #116, #33, #90, .T. ) ;
#125 = AXIS2_PLACEMENT_3D ( 'NONE', #106, #49, #105 ) ;
#126 =( NAMED_UNIT ( * ) SI_UNIT ( $, .STERADIAN. ) SOLID_ANGLE_UNIT ( ) );
#127 = AXIS2_PLACEMENT_3D ( 'NONE', #80, #83, #6 ) ;
#128 = CARTESIAN_POINT ( 'NONE',  ( 0.0000000000000000000, 0.0000000000000000000, 2.000000000000000000 ) ) ;
#129 = VECTOR ( 'NONE', #22, 1000.000000000000000 ) ;
#130 = PRODUCT_DEFINITION ( 'Î´Öª', '', #139, #113 ) ;
#131 = CARTESIAN_POINT ( 'NONE',  ( 0.0000000000000000000, 0.0000000000000000000, 2.000000000000000000 ) ) ;
#132 = APPLICATION_PROTOCOL_DEFINITION ( 'draft international standard', 'automotive_design', 1998, #88 ) ;
#133 = DIRECTION ( 'NONE',  ( 0.0000000000000000000, 0.0000000000000000000, 1.000000000000000000 ) ) ;
#134 = DIRECTION ( 'NONE',  ( -0.0000000000000000000, -0.0000000000000000000, -1.000000000000000000 ) ) ;
#135 = ORIENTED_EDGE ( 'NONE', *, *, #45, .T. ) ;
#136 = FACE_OUTER_BOUND ( 'NONE', #89, .T. ) ;
#137 = ORIENTED_EDGE ( 'NONE', *, *, #65, .F. ) ;
#138 = EDGE_CURVE ( 'NONE', #56, #116, #5, .T. ) ;
#139 = PRODUCT_DEFINITION_FORMATION_WITH_SPECIFIED_SOURCE ( 'ÈÎºÎ', '', #95, .NOT_KNOWN. ) ;
#140 = FACE_OUTER_BOUND ( 'NONE', #121, .T. ) ;
ENDSEC;
END-ISO-10303-21;
