ISO-10303-21;
HEADER;
FILE_DESCRIPTION (( 'STEP AP214' ),
    '1' );
FILE_NAME ('190057.STEP',
    '2019-07-16T02:37:26',
    ( 'user' ),
    ( 'Î¢ÈíÖÐ¹ú' ),
    'SwSTEP 2.0',
    'SolidWorks 2016',
    '' );
FILE_SCHEMA (( 'AUTOMOTIVE_DESIGN' ));
ENDSEC;

DATA;
#1 = CARTESIAN_POINT ( 'NONE',  ( 0.0000000000000000000, 0.0000000000000000000, 3.000000000000000000 ) ) ;
#2 = VECTOR ( 'NONE', #82, 1000.000000000000000 ) ;
#3 = VERTEX_POINT ( 'NONE', #34 ) ;
#4 = VECTOR ( 'NONE', #26, 1000.000000000000000 ) ;
#5 = PRODUCT ( '190057', '190057', '', ( #138 ) ) ;
#6 = PRESENTATION_LAYER_ASSIGNMENT (  '', '', ( #131 ) ) ;
#7 = EDGE_LOOP ( 'NONE', ( #65, #113 ) ) ;
#8 = EDGE_CURVE ( 'NONE', #122, #87, #62, .T. ) ;
#9 = DIRECTION ( 'NONE',  ( 1.000000000000000000, 0.0000000000000000000, 0.0000000000000000000 ) ) ;
#10 = SURFACE_STYLE_FILL_AREA ( #22 ) ;
#11 =( NAMED_UNIT ( * ) SI_UNIT ( $, .STERADIAN. ) SOLID_ANGLE_UNIT ( ) );
#12 = FILL_AREA_STYLE_COLOUR ( '', #13 ) ;
#13 = COLOUR_RGB ( '',1.000000000000000000, 1.000000000000000000, 1.000000000000000000 ) ;
#14 = UNCERTAINTY_MEASURE_WITH_UNIT (LENGTH_MEASURE( 1.000000000000000100E-005 ), #39, 'distance_accuracy_value', 'NONE');
#15 = ADVANCED_FACE ( 'NONE', ( #35 ), #69, .T. ) ;
#16 = CARTESIAN_POINT ( 'NONE',  ( 0.0000000000000000000, 0.0000000000000000000, 3.000000000000000000 ) ) ;
#17 = CARTESIAN_POINT ( 'NONE',  ( 6.250000000000000000, 7.654042494670957600E-016, 0.0000000000000000000 ) ) ;
#18 = AXIS2_PLACEMENT_3D ( 'NONE', #19, #99, #111 ) ;
#19 = CARTESIAN_POINT ( 'NONE',  ( 0.0000000000000000000, 0.0000000000000000000, 0.0000000000000000000 ) ) ;
#20 = AXIS2_PLACEMENT_3D ( 'NONE', #124, #103, #42 ) ;
#21 = FACE_OUTER_BOUND ( 'NONE', #7, .T. ) ;
#22 = FILL_AREA_STYLE ('',( #12 ) ) ;
#23 = DIRECTION ( 'NONE',  ( -1.000000000000000000, 0.0000000000000000000, 0.0000000000000000000 ) ) ;
#24 = ADVANCED_FACE ( 'NONE', ( #120 ), #92, .T. ) ;
#25 = CARTESIAN_POINT ( 'NONE',  ( 0.0000000000000000000, 0.0000000000000000000, 0.0000000000000000000 ) ) ;
#26 = DIRECTION ( 'NONE',  ( -0.0000000000000000000, -0.0000000000000000000, -1.000000000000000000 ) ) ;
#27 = CARTESIAN_POINT ( 'NONE',  ( 0.0000000000000000000, 0.0000000000000000000, 3.000000000000000000 ) ) ;
#28 = APPLICATION_PROTOCOL_DEFINITION ( 'draft international standard', 'automotive_design', 1998, #126 ) ;
#29 = ORIENTED_EDGE ( 'NONE', *, *, #64, .T. ) ;
#30 = COLOUR_RGB ( '',1.000000000000000000, 1.000000000000000000, 1.000000000000000000 ) ;
#31 = CARTESIAN_POINT ( 'NONE',  ( -6.250000000000000000, 0.0000000000000000000, 3.000000000000000000 ) ) ;
#32 = AXIS2_PLACEMENT_3D ( 'NONE', #27, #127, #114 ) ;
#33 = ORIENTED_EDGE ( 'NONE', *, *, #74, .F. ) ;
#34 = CARTESIAN_POINT ( 'NONE',  ( 6.250000000000000000, 7.654042494670957600E-016, 3.000000000000000000 ) ) ;
#35 = FACE_OUTER_BOUND ( 'NONE', #58, .T. ) ;
#36 =( GEOMETRIC_REPRESENTATION_CONTEXT ( 3 ) GLOBAL_UNCERTAINTY_ASSIGNED_CONTEXT ( ( #14 ) ) GLOBAL_UNIT_ASSIGNED_CONTEXT ( ( #39, #80, #46 ) ) REPRESENTATION_CONTEXT ( 'NONE', 'WORKASPACE' ) );
#37 = ORIENTED_EDGE ( 'NONE', *, *, #88, .F. ) ;
#38 = MECHANICAL_DESIGN_GEOMETRIC_PRESENTATION_REPRESENTATION (  '', ( #50 ), #98 ) ;
#39 =( LENGTH_UNIT ( ) NAMED_UNIT ( * ) SI_UNIT ( .MILLI., .METRE. ) );
#40 =( NAMED_UNIT ( * ) PLANE_ANGLE_UNIT ( ) SI_UNIT ( $, .RADIAN. ) );
#41 =( NAMED_UNIT ( * ) SI_UNIT ( $, .STERADIAN. ) SOLID_ANGLE_UNIT ( ) );
#42 = DIRECTION ( 'NONE',  ( -1.000000000000000000, 0.0000000000000000000, 0.0000000000000000000 ) ) ;
#43 = PRODUCT_DEFINITION_SHAPE ( 'NONE', 'NONE',  #132 ) ;
#44 =( GEOMETRIC_REPRESENTATION_CONTEXT ( 3 ) GLOBAL_UNCERTAINTY_ASSIGNED_CONTEXT ( ( #118 ) ) GLOBAL_UNIT_ASSIGNED_CONTEXT ( ( #67, #139, #11 ) ) REPRESENTATION_CONTEXT ( 'NONE', 'WORKASPACE' ) );
#45 = PRODUCT_RELATED_PRODUCT_CATEGORY ( 'part', '', ( #5 ) ) ;
#46 =( NAMED_UNIT ( * ) SI_UNIT ( $, .STERADIAN. ) SOLID_ANGLE_UNIT ( ) );
#47 =( LENGTH_UNIT ( ) NAMED_UNIT ( * ) SI_UNIT ( .MILLI., .METRE. ) );
#48 = AXIS2_PLACEMENT_3D ( 'NONE', #16, #89, #9 ) ;
#49 = ORIENTED_EDGE ( 'NONE', *, *, #94, .F. ) ;
#50 = STYLED_ITEM ( 'NONE', ( #95 ), #63 ) ;
#51 = SHAPE_DEFINITION_REPRESENTATION ( #43, #91 ) ;
#52 = ORIENTED_EDGE ( 'NONE', *, *, #81, .T. ) ;
#53 = SURFACE_STYLE_FILL_AREA ( #57 ) ;
#54 = DIRECTION ( 'NONE',  ( 1.000000000000000000, 0.0000000000000000000, -0.0000000000000000000 ) ) ;
#55 = CIRCLE ( 'NONE', #48, 6.250000000000000000 ) ;
#56 = DIRECTION ( 'NONE',  ( 0.0000000000000000000, 0.0000000000000000000, 1.000000000000000000 ) ) ;
#57 = FILL_AREA_STYLE ('',( #123 ) ) ;
#58 = EDGE_LOOP ( 'NONE', ( #119, #49, #73, #116 ) ) ;
#59 = CARTESIAN_POINT ( 'NONE',  ( 0.0000000000000000000, 0.0000000000000000000, 3.000000000000000000 ) ) ;
#60 = AXIS2_PLACEMENT_3D ( 'NONE', #77, #85, #70 ) ;
#61 = AXIS2_PLACEMENT_3D ( 'NONE', #1, #56, #110 ) ;
#62 = CIRCLE ( 'NONE', #60, 6.250000000000000000 ) ;
#63 = MANIFOLD_SOLID_BREP ( 'Í¹Ì¨-À­Éì1', #105 ) ;
#64 = EDGE_CURVE ( 'NONE', #87, #122, #133, .T. ) ;
#65 = ORIENTED_EDGE ( 'NONE', *, *, #8, .F. ) ;
#66 = ADVANCED_FACE ( 'NONE', ( #71 ), #72, .T. ) ;
#67 =( LENGTH_UNIT ( ) NAMED_UNIT ( * ) SI_UNIT ( .MILLI., .METRE. ) );
#68 = DIRECTION ( 'NONE',  ( 0.0000000000000000000, 0.0000000000000000000, 1.000000000000000000 ) ) ;
#69 = CYLINDRICAL_SURFACE ( 'NONE', #20, 6.250000000000000000 ) ;
#70 = DIRECTION ( 'NONE',  ( 1.000000000000000000, 0.0000000000000000000, 0.0000000000000000000 ) ) ;
#71 = FACE_OUTER_BOUND ( 'NONE', #79, .T. ) ;
#72 = PLANE ( 'NONE',  #61 ) ;
#73 = ORIENTED_EDGE ( 'NONE', *, *, #88, .T. ) ;
#74 = EDGE_CURVE ( 'NONE', #3, #84, #129, .T. ) ;
#75 = UNCERTAINTY_MEASURE_WITH_UNIT (LENGTH_MEASURE( 1.000000000000000100E-005 ), #47, 'distance_accuracy_value', 'NONE');
#76 = AXIS2_PLACEMENT_3D ( 'NONE', #59, #93, #23 ) ;
#77 = CARTESIAN_POINT ( 'NONE',  ( 0.0000000000000000000, 0.0000000000000000000, 0.0000000000000000000 ) ) ;
#78 = CARTESIAN_POINT ( 'NONE',  ( -6.250000000000000000, 0.0000000000000000000, 0.0000000000000000000 ) ) ;
#79 = EDGE_LOOP ( 'NONE', ( #104, #140 ) ) ;
#80 =( NAMED_UNIT ( * ) PLANE_ANGLE_UNIT ( ) SI_UNIT ( $, .RADIAN. ) );
#81 = EDGE_CURVE ( 'NONE', #3, #87, #100, .T. ) ;
#82 = DIRECTION ( 'NONE',  ( -0.0000000000000000000, -0.0000000000000000000, -1.000000000000000000 ) ) ;
#83 = APPLICATION_CONTEXT ( 'automotive_design' ) ;
#84 = VERTEX_POINT ( 'NONE', #31 ) ;
#85 = DIRECTION ( 'NONE',  ( 0.0000000000000000000, 0.0000000000000000000, 1.000000000000000000 ) ) ;
#86 = PRESENTATION_STYLE_ASSIGNMENT (( #136 ) ) ;
#87 = VERTEX_POINT ( 'NONE', #17 ) ;
#88 = EDGE_CURVE ( 'NONE', #84, #122, #109, .T. ) ;
#89 = DIRECTION ( 'NONE',  ( 0.0000000000000000000, 0.0000000000000000000, 1.000000000000000000 ) ) ;
#90 = CARTESIAN_POINT ( 'NONE',  ( -6.250000000000000000, 0.0000000000000000000, 3.000000000000000000 ) ) ;
#91 = ADVANCED_BREP_SHAPE_REPRESENTATION ( '190057', ( #63, #18 ), #44 ) ;
#92 = CYLINDRICAL_SURFACE ( 'NONE', #76, 6.250000000000000000 ) ;
#93 = DIRECTION ( 'NONE',  ( -0.0000000000000000000, -0.0000000000000000000, -1.000000000000000000 ) ) ;
#94 = EDGE_CURVE ( 'NONE', #84, #3, #55, .T. ) ;
#95 = PRESENTATION_STYLE_ASSIGNMENT (( #115 ) ) ;
#96 = CARTESIAN_POINT ( 'NONE',  ( 6.250000000000000000, 7.654042494670957600E-016, 3.000000000000000000 ) ) ;
#97 = APPLICATION_PROTOCOL_DEFINITION ( 'draft international standard', 'automotive_design', 1998, #83 ) ;
#98 =( GEOMETRIC_REPRESENTATION_CONTEXT ( 3 ) GLOBAL_UNCERTAINTY_ASSIGNED_CONTEXT ( ( #75 ) ) GLOBAL_UNIT_ASSIGNED_CONTEXT ( ( #47, #40, #41 ) ) REPRESENTATION_CONTEXT ( 'NONE', 'WORKASPACE' ) );
#99 = DIRECTION ( 'NONE',  ( 0.0000000000000000000, 0.0000000000000000000, 1.000000000000000000 ) ) ;
#100 = LINE ( 'NONE', #96, #2 ) ;
#101 = AXIS2_PLACEMENT_3D ( 'NONE', #102, #68, #125 ) ;
#102 = CARTESIAN_POINT ( 'NONE',  ( 0.0000000000000000000, 0.0000000000000000000, 0.0000000000000000000 ) ) ;
#103 = DIRECTION ( 'NONE',  ( -0.0000000000000000000, -0.0000000000000000000, -1.000000000000000000 ) ) ;
#104 = ORIENTED_EDGE ( 'NONE', *, *, #94, .T. ) ;
#105 = CLOSED_SHELL ( 'NONE', ( #24, #15, #66, #107 ) ) ;
#106 = AXIS2_PLACEMENT_3D ( 'NONE', #25, #108, #54 ) ;
#107 = ADVANCED_FACE ( 'NONE', ( #21 ), #135, .F. ) ;
#108 = DIRECTION ( 'NONE',  ( 0.0000000000000000000, 0.0000000000000000000, 1.000000000000000000 ) ) ;
#109 = LINE ( 'NONE', #90, #4 ) ;
#110 = DIRECTION ( 'NONE',  ( 1.000000000000000000, 0.0000000000000000000, -0.0000000000000000000 ) ) ;
#111 = DIRECTION ( 'NONE',  ( 1.000000000000000000, 0.0000000000000000000, 0.0000000000000000000 ) ) ;
#112 = SURFACE_SIDE_STYLE ('',( #53 ) ) ;
#113 = ORIENTED_EDGE ( 'NONE', *, *, #64, .F. ) ;
#114 = DIRECTION ( 'NONE',  ( 1.000000000000000000, 0.0000000000000000000, 0.0000000000000000000 ) ) ;
#115 = SURFACE_STYLE_USAGE ( .BOTH. , #130 ) ;
#116 = ORIENTED_EDGE ( 'NONE', *, *, #8, .T. ) ;
#117 = PRESENTATION_LAYER_ASSIGNMENT (  '', '', ( #50 ) ) ;
#118 = UNCERTAINTY_MEASURE_WITH_UNIT (LENGTH_MEASURE( 1.000000000000000100E-005 ), #67, 'distance_accuracy_value', 'NONE');
#119 = ORIENTED_EDGE ( 'NONE', *, *, #81, .F. ) ;
#120 = FACE_OUTER_BOUND ( 'NONE', #134, .T. ) ;
#121 = PRODUCT_DEFINITION_FORMATION_WITH_SPECIFIED_SOURCE ( 'ÈÎºÎ', '', #5, .NOT_KNOWN. ) ;
#122 = VERTEX_POINT ( 'NONE', #78 ) ;
#123 = FILL_AREA_STYLE_COLOUR ( '', #30 ) ;
#124 = CARTESIAN_POINT ( 'NONE',  ( 0.0000000000000000000, 0.0000000000000000000, 3.000000000000000000 ) ) ;
#125 = DIRECTION ( 'NONE',  ( 1.000000000000000000, 0.0000000000000000000, 0.0000000000000000000 ) ) ;
#126 = APPLICATION_CONTEXT ( 'automotive_design' ) ;
#127 = DIRECTION ( 'NONE',  ( 0.0000000000000000000, 0.0000000000000000000, 1.000000000000000000 ) ) ;
#128 = PRODUCT_DEFINITION_CONTEXT ( 'detailed design', #126, 'design' ) ;
#129 = CIRCLE ( 'NONE', #32, 6.250000000000000000 ) ;
#130 = SURFACE_SIDE_STYLE ('',( #10 ) ) ;
#131 = STYLED_ITEM ( 'NONE', ( #86 ), #91 ) ;
#132 = PRODUCT_DEFINITION ( 'Î´Öª', '', #121, #128 ) ;
#133 = CIRCLE ( 'NONE', #101, 6.250000000000000000 ) ;
#134 = EDGE_LOOP ( 'NONE', ( #33, #52, #29, #37 ) ) ;
#135 = PLANE ( 'NONE',  #106 ) ;
#136 = SURFACE_STYLE_USAGE ( .BOTH. , #112 ) ;
#137 = MECHANICAL_DESIGN_GEOMETRIC_PRESENTATION_REPRESENTATION (  '', ( #131 ), #36 ) ;
#138 = PRODUCT_CONTEXT ( 'NONE', #83, 'mechanical' ) ;
#139 =( NAMED_UNIT ( * ) PLANE_ANGLE_UNIT ( ) SI_UNIT ( $, .RADIAN. ) );
#140 = ORIENTED_EDGE ( 'NONE', *, *, #74, .T. ) ;
ENDSEC;
END-ISO-10303-21;
