ISO-10303-21;
HEADER;
FILE_DESCRIPTION (( 'STEP AP214' ),
    '1' );
FILE_NAME ('185006.STEP',
    '2019-07-12T01:42:57',
    ( 'user' ),
    ( 'Î¢ÈíÖÐ¹ú' ),
    'SwSTEP 2.0',
    'SolidWorks 2016',
    '' );
FILE_SCHEMA (( 'AUTOMOTIVE_DESIGN' ));
ENDSEC;

DATA;
#1 = LINE ( 'NONE', #123, #78 ) ;
#2 = APPLICATION_PROTOCOL_DEFINITION ( 'draft international standard', 'automotive_design', 1998, #140 ) ;
#3 = AXIS2_PLACEMENT_3D ( 'NONE', #42, #28, #93 ) ;
#4 = DIRECTION ( 'NONE',  ( 0.0000000000000000000, 0.0000000000000000000, 1.000000000000000000 ) ) ;
#5 = PRODUCT_DEFINITION ( 'Î´Öª', '', #12, #96 ) ;
#6 = ORIENTED_EDGE ( 'NONE', *, *, #16, .T. ) ;
#7 = FACE_OUTER_BOUND ( 'NONE', #17, .T. ) ;
#8 = PRODUCT_DEFINITION_SHAPE ( 'NONE', 'NONE',  #5 ) ;
#9 = AXIS2_PLACEMENT_3D ( 'NONE', #45, #117, #44 ) ;
#10 = APPLICATION_CONTEXT ( 'automotive_design' ) ;
#11 = AXIS2_PLACEMENT_3D ( 'NONE', #39, #4, #122 ) ;
#12 = PRODUCT_DEFINITION_FORMATION_WITH_SPECIFIED_SOURCE ( 'ÈÎºÎ', '', #52, .NOT_KNOWN. ) ;
#13 = ORIENTED_EDGE ( 'NONE', *, *, #72, .F. ) ;
#14 = UNCERTAINTY_MEASURE_WITH_UNIT (LENGTH_MEASURE( 1.000000000000000100E-005 ), #90, 'distance_accuracy_value', 'NONE');
#15 = PRODUCT_CONTEXT ( 'NONE', #10, 'mechanical' ) ;
#16 = EDGE_CURVE ( 'NONE', #116, #94, #68, .T. ) ;
#17 = EDGE_LOOP ( 'NONE', ( #46, #101 ) ) ;
#18 = PRODUCT_RELATED_PRODUCT_CATEGORY ( 'part', '', ( #52 ) ) ;
#19 = DIRECTION ( 'NONE',  ( 1.000000000000000000, 0.0000000000000000000, -0.0000000000000000000 ) ) ;
#20 = SURFACE_STYLE_FILL_AREA ( #127 ) ;
#21 = CIRCLE ( 'NONE', #79, 12.69999999999999900 ) ;
#22 = ORIENTED_EDGE ( 'NONE', *, *, #95, .T. ) ;
#23 = EDGE_CURVE ( 'NONE', #119, #116, #26, .T. ) ;
#24 =( LENGTH_UNIT ( ) NAMED_UNIT ( * ) SI_UNIT ( .MILLI., .METRE. ) );
#25 = CARTESIAN_POINT ( 'NONE',  ( 12.69999999999999900, 1.555301434917138400E-015, 0.0000000000000000000 ) ) ;
#26 = LINE ( 'NONE', #54, #132 ) ;
#27 = AXIS2_PLACEMENT_3D ( 'NONE', #34, #53, #135 ) ;
#28 = DIRECTION ( 'NONE',  ( 0.0000000000000000000, 0.0000000000000000000, 1.000000000000000000 ) ) ;
#29 = UNCERTAINTY_MEASURE_WITH_UNIT (LENGTH_MEASURE( 1.000000000000000100E-005 ), #24, 'distance_accuracy_value', 'NONE');
#30 = ADVANCED_FACE ( 'NONE', ( #7 ), #43, .T. ) ;
#31 = CARTESIAN_POINT ( 'NONE',  ( 12.69999999999999900, 1.555301434917138400E-015, 6.000000000000000000 ) ) ;
#32 =( NAMED_UNIT ( * ) SI_UNIT ( $, .STERADIAN. ) SOLID_ANGLE_UNIT ( ) );
#33 = AXIS2_PLACEMENT_3D ( 'NONE', #139, #38, #47 ) ;
#34 = CARTESIAN_POINT ( 'NONE',  ( 0.0000000000000000000, 0.0000000000000000000, 6.000000000000000000 ) ) ;
#35 = DIRECTION ( 'NONE',  ( 1.000000000000000000, 0.0000000000000000000, 0.0000000000000000000 ) ) ;
#36 = FACE_OUTER_BOUND ( 'NONE', #41, .T. ) ;
#37 =( NAMED_UNIT ( * ) SI_UNIT ( $, .STERADIAN. ) SOLID_ANGLE_UNIT ( ) );
#38 = DIRECTION ( 'NONE',  ( -0.0000000000000000000, -0.0000000000000000000, -1.000000000000000000 ) ) ;
#39 = CARTESIAN_POINT ( 'NONE',  ( 0.0000000000000000000, 0.0000000000000000000, 0.0000000000000000000 ) ) ;
#40 = STYLED_ITEM ( 'NONE', ( #73 ), #129 ) ;
#41 = EDGE_LOOP ( 'NONE', ( #80, #13, #110, #6 ) ) ;
#42 = CARTESIAN_POINT ( 'NONE',  ( 0.0000000000000000000, 0.0000000000000000000, 6.000000000000000000 ) ) ;
#43 = PLANE ( 'NONE',  #3 ) ;
#44 = DIRECTION ( 'NONE',  ( 1.000000000000000000, 0.0000000000000000000, 0.0000000000000000000 ) ) ;
#45 = CARTESIAN_POINT ( 'NONE',  ( 0.0000000000000000000, 0.0000000000000000000, 0.0000000000000000000 ) ) ;
#46 = ORIENTED_EDGE ( 'NONE', *, *, #72, .T. ) ;
#47 = DIRECTION ( 'NONE',  ( -1.000000000000000000, 0.0000000000000000000, 0.0000000000000000000 ) ) ;
#48 = DIRECTION ( 'NONE',  ( 0.0000000000000000000, 0.0000000000000000000, 1.000000000000000000 ) ) ;
#49 = AXIS2_PLACEMENT_3D ( 'NONE', #103, #97, #19 ) ;
#50 = PRESENTATION_STYLE_ASSIGNMENT (( #112 ) ) ;
#51 = COLOUR_RGB ( '',1.000000000000000000, 1.000000000000000000, 1.000000000000000000 ) ;
#52 = PRODUCT ( '185006', '185006', '', ( #15 ) ) ;
#53 = DIRECTION ( 'NONE',  ( -0.0000000000000000000, -0.0000000000000000000, -1.000000000000000000 ) ) ;
#54 = CARTESIAN_POINT ( 'NONE',  ( -12.69999999999999900, 0.0000000000000000000, 6.000000000000000000 ) ) ;
#55 = PRESENTATION_LAYER_ASSIGNMENT (  '', '', ( #40 ) ) ;
#56 =( LENGTH_UNIT ( ) NAMED_UNIT ( * ) SI_UNIT ( .MILLI., .METRE. ) );
#57 = DIRECTION ( 'NONE',  ( 0.0000000000000000000, 0.0000000000000000000, 1.000000000000000000 ) ) ;
#58 = DIRECTION ( 'NONE',  ( -0.0000000000000000000, -0.0000000000000000000, -1.000000000000000000 ) ) ;
#59 = FACE_OUTER_BOUND ( 'NONE', #121, .T. ) ;
#60 = EDGE_LOOP ( 'NONE', ( #63, #113 ) ) ;
#61 = MECHANICAL_DESIGN_GEOMETRIC_PRESENTATION_REPRESENTATION (  '', ( #40 ), #70 ) ;
#62 = UNCERTAINTY_MEASURE_WITH_UNIT (LENGTH_MEASURE( 1.000000000000000100E-005 ), #56, 'distance_accuracy_value', 'NONE');
#63 = ORIENTED_EDGE ( 'NONE', *, *, #16, .F. ) ;
#64 = DIRECTION ( 'NONE',  ( 0.0000000000000000000, 0.0000000000000000000, 1.000000000000000000 ) ) ;
#65 = DIRECTION ( 'NONE',  ( 1.000000000000000000, 0.0000000000000000000, 0.0000000000000000000 ) ) ;
#66 = CARTESIAN_POINT ( 'NONE',  ( 0.0000000000000000000, 0.0000000000000000000, 0.0000000000000000000 ) ) ;
#67 = CARTESIAN_POINT ( 'NONE',  ( 0.0000000000000000000, 0.0000000000000000000, 6.000000000000000000 ) ) ;
#68 = CIRCLE ( 'NONE', #9, 12.69999999999999900 ) ;
#69 = APPLICATION_PROTOCOL_DEFINITION ( 'draft international standard', 'automotive_design', 1998, #10 ) ;
#70 =( GEOMETRIC_REPRESENTATION_CONTEXT ( 3 ) GLOBAL_UNCERTAINTY_ASSIGNED_CONTEXT ( ( #14 ) ) GLOBAL_UNIT_ASSIGNED_CONTEXT ( ( #90, #76, #77 ) ) REPRESENTATION_CONTEXT ( 'NONE', 'WORKASPACE' ) );
#71 = VERTEX_POINT ( 'NONE', #31 ) ;
#72 = EDGE_CURVE ( 'NONE', #119, #71, #128, .T. ) ;
#73 = PRESENTATION_STYLE_ASSIGNMENT (( #89 ) ) ;
#74 = ADVANCED_FACE ( 'NONE', ( #36 ), #91, .T. ) ;
#75 = FILL_AREA_STYLE_COLOUR ( '', #137 ) ;
#76 =( NAMED_UNIT ( * ) PLANE_ANGLE_UNIT ( ) SI_UNIT ( $, .RADIAN. ) );
#77 =( NAMED_UNIT ( * ) SI_UNIT ( $, .STERADIAN. ) SOLID_ANGLE_UNIT ( ) );
#78 = VECTOR ( 'NONE', #126, 1000.000000000000000 ) ;
#79 = AXIS2_PLACEMENT_3D ( 'NONE', #67, #57, #65 ) ;
#80 = ORIENTED_EDGE ( 'NONE', *, *, #118, .F. ) ;
#81 = SURFACE_SIDE_STYLE ('',( #20 ) ) ;
#82 = CIRCLE ( 'NONE', #11, 12.69999999999999900 ) ;
#83 = ORIENTED_EDGE ( 'NONE', *, *, #23, .F. ) ;
#84 =( GEOMETRIC_REPRESENTATION_CONTEXT ( 3 ) GLOBAL_UNCERTAINTY_ASSIGNED_CONTEXT ( ( #62 ) ) GLOBAL_UNIT_ASSIGNED_CONTEXT ( ( #56, #100, #32 ) ) REPRESENTATION_CONTEXT ( 'NONE', 'WORKASPACE' ) );
#85 = ADVANCED_FACE ( 'NONE', ( #59 ), #99, .T. ) ;
#86 = FILL_AREA_STYLE ('',( #138 ) ) ;
#87 = SURFACE_SIDE_STYLE ('',( #125 ) ) ;
#88 = FACE_OUTER_BOUND ( 'NONE', #60, .T. ) ;
#89 = SURFACE_STYLE_USAGE ( .BOTH. , #87 ) ;
#90 =( LENGTH_UNIT ( ) NAMED_UNIT ( * ) SI_UNIT ( .MILLI., .METRE. ) );
#91 = CYLINDRICAL_SURFACE ( 'NONE', #27, 12.69999999999999900 ) ;
#92 = DIRECTION ( 'NONE',  ( 1.000000000000000000, 0.0000000000000000000, 0.0000000000000000000 ) ) ;
#93 = DIRECTION ( 'NONE',  ( 1.000000000000000000, 0.0000000000000000000, -0.0000000000000000000 ) ) ;
#94 = VERTEX_POINT ( 'NONE', #25 ) ;
#95 = EDGE_CURVE ( 'NONE', #94, #116, #82, .T. ) ;
#96 = PRODUCT_DEFINITION_CONTEXT ( 'detailed design', #140, 'design' ) ;
#97 = DIRECTION ( 'NONE',  ( 0.0000000000000000000, 0.0000000000000000000, 1.000000000000000000 ) ) ;
#98 = STYLED_ITEM ( 'NONE', ( #50 ), #105 ) ;
#99 = CYLINDRICAL_SURFACE ( 'NONE', #33, 12.69999999999999900 ) ;
#100 =( NAMED_UNIT ( * ) PLANE_ANGLE_UNIT ( ) SI_UNIT ( $, .RADIAN. ) );
#101 = ORIENTED_EDGE ( 'NONE', *, *, #131, .T. ) ;
#102 = PRESENTATION_LAYER_ASSIGNMENT (  '', '', ( #98 ) ) ;
#103 = CARTESIAN_POINT ( 'NONE',  ( 0.0000000000000000000, 0.0000000000000000000, 0.0000000000000000000 ) ) ;
#104 = ORIENTED_EDGE ( 'NONE', *, *, #118, .T. ) ;
#105 = ADVANCED_BREP_SHAPE_REPRESENTATION ( '185006', ( #129, #133 ), #84 ) ;
#106 = CLOSED_SHELL ( 'NONE', ( #85, #74, #30, #120 ) ) ;
#107 = PLANE ( 'NONE',  #49 ) ;
#108 = MECHANICAL_DESIGN_GEOMETRIC_PRESENTATION_REPRESENTATION (  '', ( #98 ), #115 ) ;
#109 = CARTESIAN_POINT ( 'NONE',  ( -12.69999999999999900, 0.0000000000000000000, 0.0000000000000000000 ) ) ;
#110 = ORIENTED_EDGE ( 'NONE', *, *, #23, .T. ) ;
#111 =( NAMED_UNIT ( * ) PLANE_ANGLE_UNIT ( ) SI_UNIT ( $, .RADIAN. ) );
#112 = SURFACE_STYLE_USAGE ( .BOTH. , #81 ) ;
#113 = ORIENTED_EDGE ( 'NONE', *, *, #95, .F. ) ;
#114 = SHAPE_DEFINITION_REPRESENTATION ( #8, #105 ) ;
#115 =( GEOMETRIC_REPRESENTATION_CONTEXT ( 3 ) GLOBAL_UNCERTAINTY_ASSIGNED_CONTEXT ( ( #29 ) ) GLOBAL_UNIT_ASSIGNED_CONTEXT ( ( #24, #111, #37 ) ) REPRESENTATION_CONTEXT ( 'NONE', 'WORKASPACE' ) );
#116 = VERTEX_POINT ( 'NONE', #109 ) ;
#117 = DIRECTION ( 'NONE',  ( 0.0000000000000000000, 0.0000000000000000000, 1.000000000000000000 ) ) ;
#118 = EDGE_CURVE ( 'NONE', #71, #94, #1, .T. ) ;
#119 = VERTEX_POINT ( 'NONE', #124 ) ;
#120 = ADVANCED_FACE ( 'NONE', ( #88 ), #107, .F. ) ;
#121 = EDGE_LOOP ( 'NONE', ( #134, #104, #22, #83 ) ) ;
#122 = DIRECTION ( 'NONE',  ( 1.000000000000000000, 0.0000000000000000000, 0.0000000000000000000 ) ) ;
#123 = CARTESIAN_POINT ( 'NONE',  ( 12.69999999999999900, 1.555301434917138400E-015, 6.000000000000000000 ) ) ;
#124 = CARTESIAN_POINT ( 'NONE',  ( -12.69999999999999900, 0.0000000000000000000, 6.000000000000000000 ) ) ;
#125 = SURFACE_STYLE_FILL_AREA ( #86 ) ;
#126 = DIRECTION ( 'NONE',  ( -0.0000000000000000000, -0.0000000000000000000, -1.000000000000000000 ) ) ;
#127 = FILL_AREA_STYLE ('',( #75 ) ) ;
#128 = CIRCLE ( 'NONE', #130, 12.69999999999999900 ) ;
#129 = MANIFOLD_SOLID_BREP ( 'Í¹Ì¨-À­Éì1', #106 ) ;
#130 = AXIS2_PLACEMENT_3D ( 'NONE', #136, #64, #35 ) ;
#131 = EDGE_CURVE ( 'NONE', #71, #119, #21, .T. ) ;
#132 = VECTOR ( 'NONE', #58, 1000.000000000000000 ) ;
#133 = AXIS2_PLACEMENT_3D ( 'NONE', #66, #48, #92 ) ;
#134 = ORIENTED_EDGE ( 'NONE', *, *, #131, .F. ) ;
#135 = DIRECTION ( 'NONE',  ( -1.000000000000000000, 0.0000000000000000000, 0.0000000000000000000 ) ) ;
#136 = CARTESIAN_POINT ( 'NONE',  ( 0.0000000000000000000, 0.0000000000000000000, 6.000000000000000000 ) ) ;
#137 = COLOUR_RGB ( '',1.000000000000000000, 1.000000000000000000, 1.000000000000000000 ) ;
#138 = FILL_AREA_STYLE_COLOUR ( '', #51 ) ;
#139 = CARTESIAN_POINT ( 'NONE',  ( 0.0000000000000000000, 0.0000000000000000000, 6.000000000000000000 ) ) ;
#140 = APPLICATION_CONTEXT ( 'automotive_design' ) ;
ENDSEC;
END-ISO-10303-21;
