ISO-10303-21;
HEADER;
FILE_DESCRIPTION (( 'STEP AP203' ),
    '1' );
FILE_NAME ('373516.STEP',
    '2019-07-24T07:37:23',
    ( '' ),
    ( '' ),
    'SwSTEP 2.0',
    'SolidWorks 2016',
    '' );
FILE_SCHEMA (( 'CONFIG_CONTROL_DESIGN' ));
ENDSEC;

DATA;
#1 = DATE_AND_TIME ( #199, #150 ) ;
#2 = CC_DESIGN_DATE_AND_TIME_ASSIGNMENT ( #1, #14, ( #190 ) ) ;
#3 = APPROVAL_PERSON_ORGANIZATION ( #19, #38, #168 ) ;
#4 = CARTESIAN_POINT ( 'NONE',  ( 12.49999999999999600, 1.530808498934191100E-015, 3.000000000000000000 ) ) ;
#5 = APPROVAL_PERSON_ORGANIZATION ( #56, #192, #243 ) ;
#6 = FACE_OUTER_BOUND ( 'NONE', #110, .T. ) ;
#7 = PERSON_AND_ORGANIZATION_ROLE ( 'creator' ) ;
#8 = ORIENTED_EDGE ( 'NONE', *, *, #193, .F. ) ;
#9 = CC_DESIGN_PERSON_AND_ORGANIZATION_ASSIGNMENT ( #117, #7, ( #41 ) ) ;
#10 = DIRECTION ( 'NONE',  ( -0.0000000000000000000, -0.0000000000000000000, -1.000000000000000000 ) ) ;
#11 = CARTESIAN_POINT ( 'NONE',  ( 0.0000000000000000000, 0.0000000000000000000, 0.0000000000000000000 ) ) ;
#12 = COORDINATED_UNIVERSAL_TIME_OFFSET ( 8, 0, .AHEAD. ) ;
#13 = SHAPE_DEFINITION_REPRESENTATION ( #151, #228 ) ;
#14 = DATE_TIME_ROLE ( 'creation_date' ) ;
#15 = CARTESIAN_POINT ( 'NONE',  ( 0.0000000000000000000, 0.0000000000000000000, 0.0000000000000000000 ) ) ;
#16 = APPLICATION_CONTEXT ( 'configuration controlled 3d designs of mechanical parts and assemblies' ) ;
#17 = LINE ( 'NONE', #148, #234 ) ;
#18 = PRODUCT_DEFINITION_FORMATION_WITH_SPECIFIED_SOURCE ( 'ÈÎºÎ', '', #64, .NOT_KNOWN. ) ;
#19 = PERSON_AND_ORGANIZATION ( #106, #235 ) ;
#20 = ORIENTED_EDGE ( 'NONE', *, *, #95, .T. ) ;
#21 = ORIENTED_EDGE ( 'NONE', *, *, #72, .F. ) ;
#22 = PERSON_AND_ORGANIZATION ( #106, #235 ) ;
#23 = DIRECTION ( 'NONE',  ( -0.0000000000000000000, -0.0000000000000000000, -1.000000000000000000 ) ) ;
#24 = DATE_TIME_ROLE ( 'classification_date' ) ;
#25 = ORIENTED_EDGE ( 'NONE', *, *, #85, .F. ) ;
#26 = AXIS2_PLACEMENT_3D ( 'NONE', #15, #250, #229 ) ;
#27 = CARTESIAN_POINT ( 'NONE',  ( 12.50000000000000000, 24.99999999999998900, 3.000000000000000400 ) ) ;
#28 = DIRECTION ( 'NONE',  ( 1.000000000000000000, 0.0000000000000000000, 0.0000000000000000000 ) ) ;
#29 = CALENDAR_DATE ( 2019, 24, 7 ) ;
#30 = FACE_OUTER_BOUND ( 'NONE', #94, .T. ) ;
#31 = APPROVAL_STATUS ( 'not_yet_approved' ) ;
#32 = MECHANICAL_CONTEXT ( 'NONE', #16, 'mechanical' ) ;
#33 = PRODUCT_DEFINITION ( 'Î´Öª', '', #41, #82 ) ;
#34 = CALENDAR_DATE ( 2019, 24, 7 ) ;
#35 = LOCAL_TIME ( 15, 37, 23.00000000000000000, #135 ) ;
#36 = ADVANCED_FACE ( 'NONE', ( #174 ), #172, .T. ) ;
#37 = DATE_AND_TIME ( #88, #137 ) ;
#38 = APPROVAL ( #31, 'Î´Ö¸¶¨' ) ;
#39 = DATE_AND_TIME ( #29, #92 ) ;
#40 = CARTESIAN_POINT ( 'NONE',  ( -12.49999999999999600, 0.0000000000000000000, 8.018184612839911900 ) ) ;
#41 = PRODUCT_DEFINITION_FORMATION_WITH_SPECIFIED_SOURCE ( 'ÈÎºÎ', '', #206, .NOT_KNOWN. ) ;
#42 = APPROVAL_DATE_TIME ( #39, #53 ) ;
#43 = ORIENTED_EDGE ( 'NONE', *, *, #72, .T. ) ;
#44 = APPLICATION_PROTOCOL_DEFINITION ( 'international standard', 'config_control_design', 1994, #144 ) ;
#45 = CARTESIAN_POINT ( 'NONE',  ( 0.0000000000000000000, 0.0000000000000000000, 10.00000000000000000 ) ) ;
#46 = COORDINATED_UNIVERSAL_TIME_OFFSET ( 8, 0, .AHEAD. ) ;
#47 = CARTESIAN_POINT ( 'NONE',  ( 12.49999999999999600, 1.530808498934191100E-015, 10.00000000000000000 ) ) ;
#48 = AXIS2_PLACEMENT_3D ( 'NONE', #103, #10, #49 ) ;
#49 = DIRECTION ( 'NONE',  ( -1.000000000000000000, 0.0000000000000000000, 0.0000000000000000000 ) ) ;
#50 = PERSON_AND_ORGANIZATION ( #106, #235 ) ;
#51 = PERSON_AND_ORGANIZATION_ROLE ( 'creator' ) ;
#52 = APPROVAL_PERSON_ORGANIZATION ( #154, #218, #123 ) ;
#53 = APPROVAL ( #63, 'Î´Ö¸¶¨' ) ;
#54 = CC_DESIGN_APPROVAL ( #38, ( #18 ) ) ;
#55 = PERSON_AND_ORGANIZATION ( #106, #235 ) ;
#56 = PERSON_AND_ORGANIZATION ( #106, #235 ) ;
#57 = ORIENTED_EDGE ( 'NONE', *, *, #85, .T. ) ;
#58 = CLOSED_SHELL ( 'NONE', ( #36, #133, #128, #232 ) ) ;
#59 = AXIS2_PLACEMENT_3D ( 'NONE', #11, #69, #87 ) ;
#60 = CARTESIAN_POINT ( 'NONE',  ( 12.50000000000000000, -24.99999999999998900, 3.000000000000000400 ) ) ;
#61 = COORDINATED_UNIVERSAL_TIME_OFFSET ( 8, 0, .AHEAD. ) ;
#62 = PERSON_AND_ORGANIZATION_ROLE ( 'design_supplier' ) ;
#63 = APPROVAL_STATUS ( 'not_yet_approved' ) ;
#64 = PRODUCT ( '373516', '373516', '', ( #32 ) ) ;
#65 = DIRECTION ( 'NONE',  ( 0.0000000000000000000, 0.0000000000000000000, 1.000000000000000000 ) ) ;
#66 = DIRECTION ( 'NONE',  ( 1.000000000000000000, 0.0000000000000000000, -0.0000000000000000000 ) ) ;
#67 = DATE_AND_TIME ( #34, #233 ) ;
#68 = EDGE_LOOP ( 'NONE', ( #43, #219, #155, #230 ) ) ;
#69 = DIRECTION ( 'NONE',  ( 0.0000000000000000000, 0.0000000000000000000, 1.000000000000000000 ) ) ;
#70 =( NAMED_UNIT ( * ) SI_UNIT ( $, .STERADIAN. ) SOLID_ANGLE_UNIT ( ) );
#71 = APPLICATION_CONTEXT ( 'configuration controlled 3d designs of mechanical parts and assemblies' ) ;
#72 = EDGE_CURVE ( 'NONE', #126, #189, #138, .T. ) ;
#73 = ORIENTED_EDGE ( 'NONE', *, *, #136, .F. ) ;
#74 = AXIS2_PLACEMENT_3D ( 'NONE', #207, #84, #208 ) ;
#75 = DATE_AND_TIME ( #121, #249 ) ;
#76 = PERSON_AND_ORGANIZATION ( #106, #235 ) ;
#77 = SECURITY_CLASSIFICATION ( '', '', #111 ) ;
#78 = PERSON_AND_ORGANIZATION ( #106, #235 ) ;
#79 = FACE_OUTER_BOUND ( 'NONE', #217, .T. ) ;
#80 = CARTESIAN_POINT ( 'NONE',  ( 0.0000000000000000000, 0.0000000000000000000, 0.0000000000000000000 ) ) ;
#81 = LOCAL_TIME ( 15, 37, 23.00000000000000000, #132 ) ;
#82 = DESIGN_CONTEXT ( 'detailed design', #181, 'design' ) ;
#83 = PERSON_AND_ORGANIZATION ( #106, #235 ) ;
#84 = DIRECTION ( 'NONE',  ( 0.0000000000000000000, 0.0000000000000000000, 1.000000000000000000 ) ) ;
#85 = EDGE_CURVE ( 'NONE', #139, #180, #89, .T. ) ;
#86 = CARTESIAN_POINT ( 'NONE',  ( 12.49999999999999600, -25.00000000000000000, 3.000000000000000000 ) ) ;
#87 = DIRECTION ( 'NONE',  ( 1.000000000000000000, 0.0000000000000000000, 0.0000000000000000000 ) ) ;
#88 = CALENDAR_DATE ( 2019, 24, 7 ) ;
#89 = CIRCLE ( 'NONE', #215, 12.49999999999999600 ) ;
#90 = APPLICATION_PROTOCOL_DEFINITION ( 'international standard', 'config_control_design', 1994, #71 ) ;
#91 = CC_DESIGN_PERSON_AND_ORGANIZATION_ASSIGNMENT ( #220, #159, ( #77 ) ) ;
#92 = LOCAL_TIME ( 15, 37, 23.00000000000000000, #227 ) ;
#93 = PERSON_AND_ORGANIZATION ( #106, #235 ) ;
#94 = EDGE_LOOP ( 'NONE', ( #8, #20, #158, #57 ) ) ;
#95 = EDGE_CURVE ( 'NONE', #189, #126, #125, .T. ) ;
#96 = LOCAL_TIME ( 15, 37, 23.00000000000000000, #12 ) ;
#97 = CC_DESIGN_DATE_AND_TIME_ASSIGNMENT ( #216, #24, ( #77 ) ) ;
#98 = CALENDAR_DATE ( 2019, 24, 7 ) ;
#99 = MECHANICAL_CONTEXT ( 'NONE', #144, 'mechanical' ) ;
#100 = CIRCLE ( 'NONE', #74, 12.49999999999999600 ) ;
#101 = DATE_TIME_ROLE ( 'creation_date' ) ;
#102 = APPROVAL ( #160, 'Î´Ö¸¶¨' ) ;
#103 = CARTESIAN_POINT ( 'NONE',  ( 0.0000000000000000000, 0.0000000000000000000, 10.00000000000000000 ) ) ;
#104 = APPROVAL_DATE_TIME ( #130, #192 ) ;
#105 =( GEOMETRIC_REPRESENTATION_CONTEXT ( 3 ) GLOBAL_UNCERTAINTY_ASSIGNED_CONTEXT ( ( #152 ) ) GLOBAL_UNIT_ASSIGNED_CONTEXT ( ( #251, #185, #70 ) ) REPRESENTATION_CONTEXT ( 'NONE', 'WORKASPACE' ) );
#106 = PERSON ( 'Î´Ö¸¶¨', 'Î´Ö¸¶¨', 'Î´Ö¸¶¨', ('Î´Ö¸¶¨'), ('Î´Ö¸¶¨'), ('Î´Ö¸¶¨') ) ;
#107 = CARTESIAN_POINT ( 'NONE',  ( 12.49999999999999600, 1.530808498934191100E-015, 3.000000000000000000 ) ) ;
#108 = CC_DESIGN_APPROVAL ( #102, ( #41 ) ) ;
#109 = DATE_AND_TIME ( #187, #240 ) ;
#110 = EDGE_LOOP ( 'NONE', ( #25, #73 ) ) ;
#111 = SECURITY_CLASSIFICATION_LEVEL ( 'unclassified' ) ;
#112 = DIRECTION ( 'NONE',  ( -0.1968018172473947100, 0.0000000000000000000, -0.9804432899092752100 ) ) ;
#113 = PERSON_AND_ORGANIZATION ( #106, #235 ) ;
#114 = PERSON_AND_ORGANIZATION ( #106, #235 ) ;
#115 = CC_DESIGN_APPROVAL ( #192, ( #195 ) ) ;
#116 = CARTESIAN_POINT ( 'NONE',  ( 12.49999999999999600, 1.530808498934191100E-015, 3.000000000000000000 ) ) ;
#117 = PERSON_AND_ORGANIZATION ( #106, #235 ) ;
#118 = APPROVAL_STATUS ( 'not_yet_approved' ) ;
#119 = LINE ( 'NONE', #47, #162 ) ;
#120 = PERSON_AND_ORGANIZATION_ROLE ( 'creator' ) ;
#121 = CALENDAR_DATE ( 2019, 24, 7 ) ;
#122 = CC_DESIGN_SECURITY_CLASSIFICATION ( #77, ( #18 ) ) ;
#123 = APPROVAL_ROLE ( '' ) ;
#124 = PERSON_AND_ORGANIZATION_ROLE ( 'design_owner' ) ;
#125 =( BOUNDED_CURVE ( )  B_SPLINE_CURVE ( 3, ( #116, #60, #202, #40 ),
 .UNSPECIFIED., .F., .T. ) 
 B_SPLINE_CURVE_WITH_KNOTS ( ( 4, 4 ),
 ( 0.0000000000000000000, 3.141592653589793100 ),
 .UNSPECIFIED. ) 
 CURVE ( )  GEOMETRIC_REPRESENTATION_ITEM ( )  RATIONAL_B_SPLINE_CURVE ( ( 1.000000000000000000, 0.3333333333333333700, 0.3333333333333333700, 1.000000000000000000 ) ) 
 REPRESENTATION_ITEM ( '' )  );
#126 = VERTEX_POINT ( 'NONE', #245 ) ;
#127 = CC_DESIGN_PERSON_AND_ORGANIZATION_ASSIGNMENT ( #114, #225, ( #195 ) ) ;
#128 = ADVANCED_FACE ( 'NONE', ( #6 ), #182, .F. ) ;
#129 = COORDINATED_UNIVERSAL_TIME_OFFSET ( 8, 0, .AHEAD. ) ;
#130 = DATE_AND_TIME ( #184, #81 ) ;
#131 = CC_DESIGN_APPROVAL ( #53, ( #33 ) ) ;
#132 = COORDINATED_UNIVERSAL_TIME_OFFSET ( 8, 0, .AHEAD. ) ;
#133 = ADVANCED_FACE ( 'NONE', ( #30 ), #146, .T. ) ;
#134 = PRODUCT_RELATED_PRODUCT_CATEGORY ( 'detail', '', ( #64 ) ) ;
#135 = COORDINATED_UNIVERSAL_TIME_OFFSET ( 8, 0, .AHEAD. ) ;
#136 = EDGE_CURVE ( 'NONE', #180, #139, #100, .T. ) ;
#137 = LOCAL_TIME ( 15, 37, 23.00000000000000000, #194 ) ;
#138 =( BOUNDED_CURVE ( )  B_SPLINE_CURVE ( 3, ( #239, #178, #27, #4 ),
 .UNSPECIFIED., .F., .F. ) 
 B_SPLINE_CURVE_WITH_KNOTS ( ( 4, 4 ),
 ( 3.141592653589793100, 6.283185307179586200 ),
 .UNSPECIFIED. ) 
 CURVE ( )  GEOMETRIC_REPRESENTATION_ITEM ( )  RATIONAL_B_SPLINE_CURVE ( ( 1.000000000000000000, 0.3333333333333333700, 0.3333333333333333700, 1.000000000000000000 ) ) 
 REPRESENTATION_ITEM ( '' )  );
#139 = VERTEX_POINT ( 'NONE', #165 ) ;
#140 = APPROVAL_ROLE ( '' ) ;
#141 = AXIS2_PLACEMENT_3D ( 'NONE', #86, #112, #213 ) ;
#142 = DATE_AND_TIME ( #196, #252 ) ;
#143 = CC_DESIGN_PERSON_AND_ORGANIZATION_ASSIGNMENT ( #83, #62, ( #41 ) ) ;
#144 = APPLICATION_CONTEXT ( 'configuration controlled 3d designs of mechanical parts and assemblies' ) ;
#145 = PERSON_AND_ORGANIZATION ( #106, #235 ) ;
#146 = CYLINDRICAL_SURFACE ( 'NONE', #221, 12.49999999999999600 ) ;
#147 = CC_DESIGN_DATE_AND_TIME_ASSIGNMENT ( #109, #201, ( #195 ) ) ;
#148 = CARTESIAN_POINT ( 'NONE',  ( -12.49999999999999600, 0.0000000000000000000, 10.00000000000000000 ) ) ;
#149 = AXIS2_PLACEMENT_3D ( 'NONE', #80, #65, #66 ) ;
#150 = LOCAL_TIME ( 15, 37, 23.00000000000000000, #129 ) ;
#151 = PRODUCT_DEFINITION_SHAPE ( 'NONE', 'NONE',  #33 ) ;
#152 = UNCERTAINTY_MEASURE_WITH_UNIT (LENGTH_MEASURE( 1.000000000000000100E-005 ), #251, 'distance_accuracy_value', 'NONE');
#153 = APPROVAL_DATE_TIME ( #67, #218 ) ;
#154 = PERSON_AND_ORGANIZATION ( #106, #235 ) ;
#155 = ORIENTED_EDGE ( 'NONE', *, *, #136, .T. ) ;
#156 = DIRECTION ( 'NONE',  ( -1.000000000000000000, 0.0000000000000000000, 0.0000000000000000000 ) ) ;
#157 = APPROVAL_DATE_TIME ( #142, #236 ) ;
#158 = ORIENTED_EDGE ( 'NONE', *, *, #209, .T. ) ;
#159 = PERSON_AND_ORGANIZATION_ROLE ( 'classification_officer' ) ;
#160 = APPROVAL_STATUS ( 'not_yet_approved' ) ;
#161 = CC_DESIGN_PERSON_AND_ORGANIZATION_ASSIGNMENT ( #113, #203, ( #206 ) ) ;
#162 = VECTOR ( 'NONE', #169, 1000.000000000000000 ) ;
#163 = APPLICATION_PROTOCOL_DEFINITION ( 'international standard', 'config_control_design', 1994, #181 ) ;
#164 = PRODUCT_DEFINITION_SHAPE ( 'NONE', 'NONE',  #190 ) ;
#165 = CARTESIAN_POINT ( 'NONE',  ( -12.49999999999999600, 0.0000000000000000000, 0.0000000000000000000 ) ) ;
#166 = APPROVAL_PERSON_ORGANIZATION ( #145, #53, #223 ) ;
#167 = DIRECTION ( 'NONE',  ( -0.0000000000000000000, -0.0000000000000000000, -1.000000000000000000 ) ) ;
#168 = APPROVAL_ROLE ( '' ) ;
#169 = DIRECTION ( 'NONE',  ( -0.0000000000000000000, -0.0000000000000000000, -1.000000000000000000 ) ) ;
#170 = PRODUCT_RELATED_PRODUCT_CATEGORY ( 'detail', '', ( #206 ) ) ;
#171 = APPROVAL_DATE_TIME ( #37, #102 ) ;
#172 = CYLINDRICAL_SURFACE ( 'NONE', #48, 12.49999999999999600 ) ;
#173 = CC_DESIGN_SECURITY_CLASSIFICATION ( #195, ( #41 ) ) ;
#174 = FACE_OUTER_BOUND ( 'NONE', #68, .T. ) ;
#175 = CC_DESIGN_PERSON_AND_ORGANIZATION_ASSIGNMENT ( #76, #124, ( #64 ) ) ;
#176 = DESIGN_CONTEXT ( 'detailed design', #71, 'design' ) ;
#177 = CC_DESIGN_DATE_AND_TIME_ASSIGNMENT ( #75, #101, ( #33 ) ) ;
#178 = CARTESIAN_POINT ( 'NONE',  ( -12.50000000000000000, 24.99999999999998900, 8.018184612839911900 ) ) ;
#179 = COORDINATED_UNIVERSAL_TIME_OFFSET ( 8, 0, .AHEAD. ) ;
#180 = VERTEX_POINT ( 'NONE', #205 ) ;
#181 = APPLICATION_CONTEXT ( 'configuration controlled 3d designs of mechanical parts and assemblies' ) ;
#182 = PLANE ( 'NONE',  #149 ) ;
#183 = APPROVAL_PERSON_ORGANIZATION ( #93, #236, #140 ) ;
#184 = CALENDAR_DATE ( 2019, 24, 7 ) ;
#185 =( NAMED_UNIT ( * ) PLANE_ANGLE_UNIT ( ) SI_UNIT ( $, .RADIAN. ) );
#186 = PERSON_AND_ORGANIZATION_ROLE ( 'design_supplier' ) ;
#187 = CALENDAR_DATE ( 2019, 24, 7 ) ;
#188 = PLANE ( 'NONE',  #141 ) ;
#189 = VERTEX_POINT ( 'NONE', #107 ) ;
#190 = PRODUCT_DEFINITION ( 'Î´Öª', '', #18, #176 ) ;
#191 = APPROVAL_PERSON_ORGANIZATION ( #22, #102, #241 ) ;
#192 = APPROVAL ( #118, 'Î´Ö¸¶¨' ) ;
#193 = EDGE_CURVE ( 'NONE', #189, #180, #119, .T. ) ;
#194 = COORDINATED_UNIVERSAL_TIME_OFFSET ( 8, 0, .AHEAD. ) ;
#195 = SECURITY_CLASSIFICATION ( '', '', #200 ) ;
#196 = CALENDAR_DATE ( 2019, 24, 7 ) ;
#197 = CC_DESIGN_PERSON_AND_ORGANIZATION_ASSIGNMENT ( #78, #51, ( #18 ) ) ;
#198 = DIRECTION ( 'NONE',  ( 0.0000000000000000000, 0.0000000000000000000, 1.000000000000000000 ) ) ;
#199 = CALENDAR_DATE ( 2019, 24, 7 ) ;
#200 = SECURITY_CLASSIFICATION_LEVEL ( 'unclassified' ) ;
#201 = DATE_TIME_ROLE ( 'classification_date' ) ;
#202 = CARTESIAN_POINT ( 'NONE',  ( -12.49999999999999500, -24.99999999999998900, 8.018184612839911900 ) ) ;
#203 = PERSON_AND_ORGANIZATION_ROLE ( 'design_owner' ) ;
#204 = DATE_AND_TIME ( #98, #35 ) ;
#205 = CARTESIAN_POINT ( 'NONE',  ( 12.49999999999999600, 1.530808498934191100E-015, 0.0000000000000000000 ) ) ;
#206 = PRODUCT ( '373516', '373516', '', ( #99 ) ) ;
#207 = CARTESIAN_POINT ( 'NONE',  ( 0.0000000000000000000, 0.0000000000000000000, 0.0000000000000000000 ) ) ;
#208 = DIRECTION ( 'NONE',  ( 1.000000000000000000, 0.0000000000000000000, 0.0000000000000000000 ) ) ;
#209 = EDGE_CURVE ( 'NONE', #126, #139, #17, .T. ) ;
#210 = APPROVAL_STATUS ( 'not_yet_approved' ) ;
#211 = COORDINATED_UNIVERSAL_TIME_OFFSET ( 8, 0, .AHEAD. ) ;
#212 = PERSON_AND_ORGANIZATION_ROLE ( 'creator' ) ;
#213 = DIRECTION ( 'NONE',  ( -0.9804432899092752100, 0.0000000000000000000, 0.1968018172473947100 ) ) ;
#214 = MANIFOLD_SOLID_BREP ( 'ÇÐ³ý-À­Éì1', #58 ) ;
#215 = AXIS2_PLACEMENT_3D ( 'NONE', #224, #198, #28 ) ;
#216 = DATE_AND_TIME ( #237, #96 ) ;
#217 = EDGE_LOOP ( 'NONE', ( #21, #242 ) ) ;
#218 = APPROVAL ( #210, 'Î´Ö¸¶¨' ) ;
#219 = ORIENTED_EDGE ( 'NONE', *, *, #193, .T. ) ;
#220 = PERSON_AND_ORGANIZATION ( #106, #235 ) ;
#221 = AXIS2_PLACEMENT_3D ( 'NONE', #45, #23, #156 ) ;
#222 = APPROVAL_STATUS ( 'not_yet_approved' ) ;
#223 = APPROVAL_ROLE ( '' ) ;
#224 = CARTESIAN_POINT ( 'NONE',  ( 0.0000000000000000000, 0.0000000000000000000, 0.0000000000000000000 ) ) ;
#225 = PERSON_AND_ORGANIZATION_ROLE ( 'classification_officer' ) ;
#226 = CC_DESIGN_PERSON_AND_ORGANIZATION_ASSIGNMENT ( #50, #186, ( #18 ) ) ;
#227 = COORDINATED_UNIVERSAL_TIME_OFFSET ( 8, 0, .AHEAD. ) ;
#228 = ADVANCED_BREP_SHAPE_REPRESENTATION ( '373516', ( #214, #59 ), #105 ) ;
#229 = DIRECTION ( 'NONE',  ( 1.000000000000000000, 0.0000000000000000000, 0.0000000000000000000 ) ) ;
#230 = ORIENTED_EDGE ( 'NONE', *, *, #209, .F. ) ;
#231 = CC_DESIGN_APPROVAL ( #218, ( #190 ) ) ;
#232 = ADVANCED_FACE ( 'NONE', ( #79 ), #188, .F. ) ;
#233 = LOCAL_TIME ( 15, 37, 23.00000000000000000, #211 ) ;
#234 = VECTOR ( 'NONE', #167, 1000.000000000000000 ) ;
#235 = ORGANIZATION ( 'Î´Ö¸¶¨', 'Î´Ö¸¶¨', '' ) ;
#236 = APPROVAL ( #222, 'Î´Ö¸¶¨' ) ;
#237 = CALENDAR_DATE ( 2019, 24, 7 ) ;
#238 = APPROVAL_DATE_TIME ( #204, #38 ) ;
#239 = CARTESIAN_POINT ( 'NONE',  ( -12.49999999999999600, 0.0000000000000000000, 8.018184612839911900 ) ) ;
#240 = LOCAL_TIME ( 15, 37, 23.00000000000000000, #61 ) ;
#241 = APPROVAL_ROLE ( '' ) ;
#242 = ORIENTED_EDGE ( 'NONE', *, *, #95, .F. ) ;
#243 = APPROVAL_ROLE ( '' ) ;
#244 = CC_DESIGN_PERSON_AND_ORGANIZATION_ASSIGNMENT ( #55, #212, ( #190 ) ) ;
#245 = CARTESIAN_POINT ( 'NONE',  ( -12.49999999999999600, 0.0000000000000000000, 8.018184612839911900 ) ) ;
#246 = PERSON_AND_ORGANIZATION ( #106, #235 ) ;
#247 = CC_DESIGN_PERSON_AND_ORGANIZATION_ASSIGNMENT ( #246, #120, ( #33 ) ) ;
#248 = APPLICATION_PROTOCOL_DEFINITION ( 'international standard', 'config_control_design', 1994, #16 ) ;
#249 = LOCAL_TIME ( 15, 37, 23.00000000000000000, #179 ) ;
#250 = DIRECTION ( 'NONE',  ( 0.0000000000000000000, 0.0000000000000000000, 1.000000000000000000 ) ) ;
#251 =( LENGTH_UNIT ( ) NAMED_UNIT ( * ) SI_UNIT ( .MILLI., .METRE. ) );
#252 = LOCAL_TIME ( 15, 37, 23.00000000000000000, #46 ) ;
#253 = CC_DESIGN_APPROVAL ( #236, ( #77 ) ) ;
ENDSEC;
END-ISO-10303-21;
