ISO-10303-21;
HEADER;
FILE_DESCRIPTION (( 'STEP AP203' ),
    '1' );
FILE_NAME ('373502.STEP',
    '2019-07-24T07:29:32',
    ( '' ),
    ( '' ),
    'SwSTEP 2.0',
    'SolidWorks 2016',
    '' );
FILE_SCHEMA (( 'CONFIG_CONTROL_DESIGN' ));
ENDSEC;

DATA;
#1 = DIRECTION ( 'NONE',  ( 0.0000000000000000000, 0.0000000000000000000, 1.000000000000000000 ) ) ;
#2 = PERSON_AND_ORGANIZATION ( #248, #44 ) ;
#3 = DIRECTION ( 'NONE',  ( 0.0000000000000000000, 0.0000000000000000000, 1.000000000000000000 ) ) ;
#4 = APPROVAL_STATUS ( 'not_yet_approved' ) ;
#5 = CC_DESIGN_PERSON_AND_ORGANIZATION_ASSIGNMENT ( #21, #203, ( #110 ) ) ;
#6 = DATE_TIME_ROLE ( 'classification_date' ) ;
#7 = APPLICATION_CONTEXT ( 'configuration controlled 3d designs of mechanical parts and assemblies' ) ;
#8 = ORIENTED_EDGE ( 'NONE', *, *, #198, .T. ) ;
#9 = CALENDAR_DATE ( 2019, 24, 7 ) ;
#10 = CC_DESIGN_PERSON_AND_ORGANIZATION_ASSIGNMENT ( #180, #229, ( #33 ) ) ;
#11 = FACE_OUTER_BOUND ( 'NONE', #209, .T. ) ;
#12 = DATE_AND_TIME ( #125, #80 ) ;
#13 = AXIS2_PLACEMENT_3D ( 'NONE', #91, #201, #88 ) ;
#14 = PERSON_AND_ORGANIZATION ( #248, #44 ) ;
#15 = CARTESIAN_POINT ( 'NONE',  ( 12.50000000000000000, 24.99999999999998900, 3.000000000000000400 ) ) ;
#16 = COORDINATED_UNIVERSAL_TIME_OFFSET ( 8, 0, .AHEAD. ) ;
#17 = ADVANCED_FACE ( 'NONE', ( #11 ), #84, .T. ) ;
#18 = DIRECTION ( 'NONE',  ( -1.000000000000000000, 0.0000000000000000000, 0.0000000000000000000 ) ) ;
#19 = DESIGN_CONTEXT ( 'detailed design', #149, 'design' ) ;
#20 = CARTESIAN_POINT ( 'NONE',  ( 12.49999999999999600, 1.530808498934191100E-015, 3.000000000000000000 ) ) ;
#21 = PERSON_AND_ORGANIZATION ( #248, #44 ) ;
#22 = MECHANICAL_CONTEXT ( 'NONE', #7, 'mechanical' ) ;
#23 = APPROVAL ( #228, 'Î´Ö¸¶¨' ) ;
#24 = CALENDAR_DATE ( 2019, 24, 7 ) ;
#25 = APPLICATION_CONTEXT ( 'configuration controlled 3d designs of mechanical parts and assemblies' ) ;
#26 = PERSON_AND_ORGANIZATION_ROLE ( 'classification_officer' ) ;
#27 = LOCAL_TIME ( 15, 29, 32.00000000000000000, #216 ) ;
#28 = CC_DESIGN_DATE_AND_TIME_ASSIGNMENT ( #12, #6, ( #175 ) ) ;
#29 = LOCAL_TIME ( 15, 29, 32.00000000000000000, #96 ) ;
#30 = LINE ( 'NONE', #186, #81 ) ;
#31 = PERSON_AND_ORGANIZATION ( #248, #44 ) ;
#32 = PERSON_AND_ORGANIZATION ( #248, #44 ) ;
#33 = PRODUCT ( '373502', '373502', '', ( #193 ) ) ;
#34 = EDGE_CURVE ( 'NONE', #122, #217, #87, .T. ) ;
#35 = PRODUCT_DEFINITION_SHAPE ( 'NONE', 'NONE',  #54 ) ;
#36 = CYLINDRICAL_SURFACE ( 'NONE', #156, 12.49999999999999600 ) ;
#37 = ORIENTED_EDGE ( 'NONE', *, *, #34, .T. ) ;
#38 = CC_DESIGN_SECURITY_CLASSIFICATION ( #175, ( #110 ) ) ;
#39 = APPROVAL ( #134, 'Î´Ö¸¶¨' ) ;
#40 = DIRECTION ( 'NONE',  ( 0.0000000000000000000, 0.0000000000000000000, 1.000000000000000000 ) ) ;
#41 = PRODUCT_RELATED_PRODUCT_CATEGORY ( 'detail', '', ( #33 ) ) ;
#42 = APPROVAL_PERSON_ORGANIZATION ( #31, #206, #241 ) ;
#43 =( LENGTH_UNIT ( ) NAMED_UNIT ( * ) SI_UNIT ( .MILLI., .METRE. ) );
#44 = ORGANIZATION ( 'Î´Ö¸¶¨', 'Î´Ö¸¶¨', '' ) ;
#45 = CARTESIAN_POINT ( 'NONE',  ( 0.0000000000000000000, 0.0000000000000000000, 0.0000000000000000000 ) ) ;
#46 = APPLICATION_CONTEXT ( 'configuration controlled 3d designs of mechanical parts and assemblies' ) ;
#47 = APPROVAL_DATE_TIME ( #104, #23 ) ;
#48 = ORIENTED_EDGE ( 'NONE', *, *, #34, .F. ) ;
#49 = SECURITY_CLASSIFICATION_LEVEL ( 'unclassified' ) ;
#50 = APPROVAL_ROLE ( '' ) ;
#51 = APPROVAL_PERSON_ORGANIZATION ( #136, #184, #148 ) ;
#52 = APPLICATION_PROTOCOL_DEFINITION ( 'international standard', 'config_control_design', 1994, #25 ) ;
#53 = CALENDAR_DATE ( 2019, 24, 7 ) ;
#54 = PRODUCT_DEFINITION ( 'Î´Öª', '', #110, #19 ) ;
#55 = PRODUCT_DEFINITION_SHAPE ( 'NONE', 'NONE',  #166 ) ;
#56 = VERTEX_POINT ( 'NONE', #141 ) ;
#57 = PRODUCT ( '373502', '373502', '', ( #22 ) ) ;
#58 = CC_DESIGN_PERSON_AND_ORGANIZATION_ASSIGNMENT ( #127, #26, ( #103 ) ) ;
#59 = PRODUCT_RELATED_PRODUCT_CATEGORY ( 'detail', '', ( #57 ) ) ;
#60 = DATE_AND_TIME ( #244, #67 ) ;
#61 = CC_DESIGN_PERSON_AND_ORGANIZATION_ASSIGNMENT ( #2, #79, ( #250 ) ) ;
#62 = AXIS2_PLACEMENT_3D ( 'NONE', #109, #238, #165 ) ;
#63 = DATE_AND_TIME ( #9, #170 ) ;
#64 = EDGE_LOOP ( 'NONE', ( #119, #215, #37, #226 ) ) ;
#65 = CARTESIAN_POINT ( 'NONE',  ( 0.0000000000000000000, 0.0000000000000000000, 10.00000000000000000 ) ) ;
#66 = CARTESIAN_POINT ( 'NONE',  ( 0.0000000000000000000, 0.0000000000000000000, 0.0000000000000000000 ) ) ;
#67 = LOCAL_TIME ( 15, 29, 32.00000000000000000, #200 ) ;
#68 = CC_DESIGN_DATE_AND_TIME_ASSIGNMENT ( #60, #192, ( #103 ) ) ;
#69 = DIRECTION ( 'NONE',  ( 1.000000000000000000, 0.0000000000000000000, 0.0000000000000000000 ) ) ;
#70 = APPLICATION_PROTOCOL_DEFINITION ( 'international standard', 'config_control_design', 1994, #149 ) ;
#71 = PERSON_AND_ORGANIZATION_ROLE ( 'creator' ) ;
#72 =( BOUNDED_CURVE ( )  B_SPLINE_CURVE ( 3, ( #111, #239, #167, #113 ),
 .UNSPECIFIED., .F., .T. ) 
 B_SPLINE_CURVE_WITH_KNOTS ( ( 4, 4 ),
 ( 0.0000000000000000000, 3.141592653589793100 ),
 .UNSPECIFIED. ) 
 CURVE ( )  GEOMETRIC_REPRESENTATION_ITEM ( )  RATIONAL_B_SPLINE_CURVE ( ( 1.000000000000000000, 0.3333333333333333700, 0.3333333333333333700, 1.000000000000000000 ) ) 
 REPRESENTATION_ITEM ( '' )  );
#73 = COORDINATED_UNIVERSAL_TIME_OFFSET ( 8, 0, .AHEAD. ) ;
#74 = VECTOR ( 'NONE', #183, 1000.000000000000000 ) ;
#75 = APPROVAL_STATUS ( 'not_yet_approved' ) ;
#76 = CC_DESIGN_PERSON_AND_ORGANIZATION_ASSIGNMENT ( #159, #94, ( #175 ) ) ;
#77 = COORDINATED_UNIVERSAL_TIME_OFFSET ( 8, 0, .AHEAD. ) ;
#78 = CC_DESIGN_PERSON_AND_ORGANIZATION_ASSIGNMENT ( #187, #133, ( #166 ) ) ;
#79 = PERSON_AND_ORGANIZATION_ROLE ( 'creator' ) ;
#80 = LOCAL_TIME ( 15, 29, 32.00000000000000000, #73 ) ;
#81 = VECTOR ( 'NONE', #95, 1000.000000000000000 ) ;
#82 = ORIENTED_EDGE ( 'NONE', *, *, #198, .F. ) ;
#83 = CC_DESIGN_SECURITY_CLASSIFICATION ( #103, ( #250 ) ) ;
#84 = CYLINDRICAL_SURFACE ( 'NONE', #231, 12.49999999999999600 ) ;
#85 = CC_DESIGN_APPROVAL ( #206, ( #54 ) ) ;
#86 = APPROVAL_PERSON_ORGANIZATION ( #150, #39, #210 ) ;
#87 = LINE ( 'NONE', #105, #74 ) ;
#88 = DIRECTION ( 'NONE',  ( 1.000000000000000000, 0.0000000000000000000, -0.0000000000000000000 ) ) ;
#89 =( GEOMETRIC_REPRESENTATION_CONTEXT ( 3 ) GLOBAL_UNCERTAINTY_ASSIGNED_CONTEXT ( ( #189 ) ) GLOBAL_UNIT_ASSIGNED_CONTEXT ( ( #43, #92, #128 ) ) REPRESENTATION_CONTEXT ( 'NONE', 'WORKASPACE' ) );
#90 = CARTESIAN_POINT ( 'NONE',  ( -12.49999999999999600, 0.0000000000000000000, 4.686795440959294000 ) ) ;
#91 = CARTESIAN_POINT ( 'NONE',  ( 0.0000000000000000000, 0.0000000000000000000, 0.0000000000000000000 ) ) ;
#92 =( NAMED_UNIT ( * ) PLANE_ANGLE_UNIT ( ) SI_UNIT ( $, .RADIAN. ) );
#93 = DATE_AND_TIME ( #123, #27 ) ;
#94 = PERSON_AND_ORGANIZATION_ROLE ( 'classification_officer' ) ;
#95 = DIRECTION ( 'NONE',  ( -0.0000000000000000000, -0.0000000000000000000, -1.000000000000000000 ) ) ;
#96 = COORDINATED_UNIVERSAL_TIME_OFFSET ( 8, 0, .AHEAD. ) ;
#97 = CC_DESIGN_PERSON_AND_ORGANIZATION_ASSIGNMENT ( #197, #129, ( #54 ) ) ;
#98 = PERSON_AND_ORGANIZATION ( #248, #44 ) ;
#99 = FACE_OUTER_BOUND ( 'NONE', #182, .T. ) ;
#100 = ORIENTED_EDGE ( 'NONE', *, *, #247, .T. ) ;
#101 = CC_DESIGN_APPROVAL ( #120, ( #103 ) ) ;
#102 = PERSON_AND_ORGANIZATION ( #248, #44 ) ;
#103 = SECURITY_CLASSIFICATION ( '', '', #49 ) ;
#104 = DATE_AND_TIME ( #53, #155 ) ;
#105 = CARTESIAN_POINT ( 'NONE',  ( -12.49999999999999600, 0.0000000000000000000, 10.00000000000000000 ) ) ;
#106 = DIRECTION ( 'NONE',  ( 1.000000000000000000, 0.0000000000000000000, 0.0000000000000000000 ) ) ;
#107 = DATE_TIME_ROLE ( 'creation_date' ) ;
#108 = APPROVAL_DATE_TIME ( #93, #206 ) ;
#109 = CARTESIAN_POINT ( 'NONE',  ( 12.49999999999999600, -25.00000000000000000, 3.000000000000000000 ) ) ;
#110 = PRODUCT_DEFINITION_FORMATION_WITH_SPECIFIED_SOURCE ( 'ÈÎºÎ', '', #57, .NOT_KNOWN. ) ;
#111 = CARTESIAN_POINT ( 'NONE',  ( 12.49999999999999600, 1.530808498934191100E-015, 3.000000000000000000 ) ) ;
#112 = APPLICATION_PROTOCOL_DEFINITION ( 'international standard', 'config_control_design', 1994, #7 ) ;
#113 = CARTESIAN_POINT ( 'NONE',  ( -12.49999999999999600, 0.0000000000000000000, 4.686795440959294000 ) ) ;
#114 = COORDINATED_UNIVERSAL_TIME_OFFSET ( 8, 0, .AHEAD. ) ;
#115 = ORIENTED_EDGE ( 'NONE', *, *, #202, .F. ) ;
#116 = APPROVAL_ROLE ( '' ) ;
#117 = PERSON_AND_ORGANIZATION_ROLE ( 'design_supplier' ) ;
#118 = DATE_AND_TIME ( #240, #157 ) ;
#119 = ORIENTED_EDGE ( 'NONE', *, *, #247, .F. ) ;
#120 = APPROVAL ( #176, 'Î´Ö¸¶¨' ) ;
#121 = CALENDAR_DATE ( 2019, 24, 7 ) ;
#122 = VERTEX_POINT ( 'NONE', #219 ) ;
#123 = CALENDAR_DATE ( 2019, 24, 7 ) ;
#124 = APPROVAL ( #4, 'Î´Ö¸¶¨' ) ;
#125 = CALENDAR_DATE ( 2019, 24, 7 ) ;
#126 = ADVANCED_FACE ( 'NONE', ( #99 ), #144, .F. ) ;
#127 = PERSON_AND_ORGANIZATION ( #248, #44 ) ;
#128 =( NAMED_UNIT ( * ) SI_UNIT ( $, .STERADIAN. ) SOLID_ANGLE_UNIT ( ) );
#129 = PERSON_AND_ORGANIZATION_ROLE ( 'creator' ) ;
#130 = PLANE ( 'NONE',  #62 ) ;
#131 = EDGE_CURVE ( 'NONE', #217, #153, #178, .T. ) ;
#132 = APPLICATION_PROTOCOL_DEFINITION ( 'international standard', 'config_control_design', 1994, #46 ) ;
#133 = PERSON_AND_ORGANIZATION_ROLE ( 'creator' ) ;
#134 = APPROVAL_STATUS ( 'not_yet_approved' ) ;
#135 =( BOUNDED_CURVE ( )  B_SPLINE_CURVE ( 3, ( #90, #237, #15, #20 ),
 .UNSPECIFIED., .F., .T. ) 
 B_SPLINE_CURVE_WITH_KNOTS ( ( 4, 4 ),
 ( 3.141592653589793100, 6.283185307179586200 ),
 .UNSPECIFIED. ) 
 CURVE ( )  GEOMETRIC_REPRESENTATION_ITEM ( )  RATIONAL_B_SPLINE_CURVE ( ( 1.000000000000000000, 0.3333333333333333700, 0.3333333333333333700, 1.000000000000000000 ) ) 
 REPRESENTATION_ITEM ( '' )  );
#136 = PERSON_AND_ORGANIZATION ( #248, #44 ) ;
#137 = FACE_OUTER_BOUND ( 'NONE', #188, .T. ) ;
#138 = ORIENTED_EDGE ( 'NONE', *, *, #245, .F. ) ;
#139 = CC_DESIGN_DATE_AND_TIME_ASSIGNMENT ( #204, #243, ( #166 ) ) ;
#140 = COORDINATED_UNIVERSAL_TIME_OFFSET ( 8, 0, .AHEAD. ) ;
#141 = CARTESIAN_POINT ( 'NONE',  ( 12.49999999999999600, 1.530808498934191100E-015, 3.000000000000000000 ) ) ;
#142 = ADVANCED_BREP_SHAPE_REPRESENTATION ( '373502', ( #205, #194 ), #89 ) ;
#143 = AXIS2_PLACEMENT_3D ( 'NONE', #66, #220, #106 ) ;
#144 = PLANE ( 'NONE',  #13 ) ;
#145 = DATE_AND_TIME ( #24, #29 ) ;
#146 = PERSON_AND_ORGANIZATION_ROLE ( 'design_owner' ) ;
#147 = CARTESIAN_POINT ( 'NONE',  ( -12.49999999999999600, 0.0000000000000000000, 0.0000000000000000000 ) ) ;
#148 = APPROVAL_ROLE ( '' ) ;
#149 = APPLICATION_CONTEXT ( 'configuration controlled 3d designs of mechanical parts and assemblies' ) ;
#150 = PERSON_AND_ORGANIZATION ( #248, #44 ) ;
#151 = AXIS2_PLACEMENT_3D ( 'NONE', #169, #3, #172 ) ;
#152 = CIRCLE ( 'NONE', #151, 12.49999999999999600 ) ;
#153 = VERTEX_POINT ( 'NONE', #222 ) ;
#154 = CC_DESIGN_APPROVAL ( #39, ( #166 ) ) ;
#155 = LOCAL_TIME ( 15, 29, 32.00000000000000000, #114 ) ;
#156 = AXIS2_PLACEMENT_3D ( 'NONE', #190, #208, #227 ) ;
#157 = LOCAL_TIME ( 15, 29, 32.00000000000000000, #77 ) ;
#158 = ORIENTED_EDGE ( 'NONE', *, *, #131, .F. ) ;
#159 = PERSON_AND_ORGANIZATION ( #248, #44 ) ;
#160 = CC_DESIGN_PERSON_AND_ORGANIZATION_ASSIGNMENT ( #164, #71, ( #110 ) ) ;
#161 = CALENDAR_DATE ( 2019, 24, 7 ) ;
#162 = FACE_OUTER_BOUND ( 'NONE', #64, .T. ) ;
#163 = DIRECTION ( 'NONE',  ( -0.0000000000000000000, -0.0000000000000000000, -1.000000000000000000 ) ) ;
#164 = PERSON_AND_ORGANIZATION ( #248, #44 ) ;
#165 = DIRECTION ( 'NONE',  ( -0.9977315193327016600, 0.0000000000000000000, 0.06731875912447161900 ) ) ;
#166 = PRODUCT_DEFINITION ( 'Î´Öª', '', #250, #173 ) ;
#167 = CARTESIAN_POINT ( 'NONE',  ( -12.49999999999999500, -24.99999999999998900, 4.686795440959294000 ) ) ;
#168 = CARTESIAN_POINT ( 'NONE',  ( 0.0000000000000000000, 0.0000000000000000000, 0.0000000000000000000 ) ) ;
#169 = CARTESIAN_POINT ( 'NONE',  ( 0.0000000000000000000, 0.0000000000000000000, 0.0000000000000000000 ) ) ;
#170 = LOCAL_TIME ( 15, 29, 32.00000000000000000, #249 ) ;
#171 = SHAPE_DEFINITION_REPRESENTATION ( #55, #142 ) ;
#172 = DIRECTION ( 'NONE',  ( 1.000000000000000000, 0.0000000000000000000, 0.0000000000000000000 ) ) ;
#173 = DESIGN_CONTEXT ( 'detailed design', #25, 'design' ) ;
#174 = APPROVAL_PERSON_ORGANIZATION ( #14, #23, #50 ) ;
#175 = SECURITY_CLASSIFICATION ( '', '', #223 ) ;
#176 = APPROVAL_STATUS ( 'not_yet_approved' ) ;
#177 = CALENDAR_DATE ( 2019, 24, 7 ) ;
#178 = CIRCLE ( 'NONE', #143, 12.49999999999999600 ) ;
#179 = CC_DESIGN_PERSON_AND_ORGANIZATION_ASSIGNMENT ( #102, #117, ( #250 ) ) ;
#180 = PERSON_AND_ORGANIZATION ( #248, #44 ) ;
#181 = APPROVAL_DATE_TIME ( #118, #124 ) ;
#182 = EDGE_LOOP ( 'NONE', ( #158, #115 ) ) ;
#183 = DIRECTION ( 'NONE',  ( -0.0000000000000000000, -0.0000000000000000000, -1.000000000000000000 ) ) ;
#184 = APPROVAL ( #242, 'Î´Ö¸¶¨' ) ;
#185 = APPROVAL_ROLE ( '' ) ;
#186 = CARTESIAN_POINT ( 'NONE',  ( 12.49999999999999600, 1.530808498934191100E-015, 10.00000000000000000 ) ) ;
#187 = PERSON_AND_ORGANIZATION ( #248, #44 ) ;
#188 = EDGE_LOOP ( 'NONE', ( #82, #138 ) ) ;
#189 = UNCERTAINTY_MEASURE_WITH_UNIT (LENGTH_MEASURE( 1.000000000000000100E-005 ), #43, 'distance_accuracy_value', 'NONE');
#190 = CARTESIAN_POINT ( 'NONE',  ( 0.0000000000000000000, 0.0000000000000000000, 10.00000000000000000 ) ) ;
#191 = APPROVAL_PERSON_ORGANIZATION ( #195, #120, #116 ) ;
#192 = DATE_TIME_ROLE ( 'classification_date' ) ;
#193 = MECHANICAL_CONTEXT ( 'NONE', #46, 'mechanical' ) ;
#194 = AXIS2_PLACEMENT_3D ( 'NONE', #168, #40, #69 ) ;
#195 = PERSON_AND_ORGANIZATION ( #248, #44 ) ;
#196 = CC_DESIGN_APPROVAL ( #23, ( #250 ) ) ;
#197 = PERSON_AND_ORGANIZATION ( #248, #44 ) ;
#198 = EDGE_CURVE ( 'NONE', #122, #56, #135, .T. ) ;
#199 = ADVANCED_FACE ( 'NONE', ( #137 ), #130, .F. ) ;
#200 = COORDINATED_UNIVERSAL_TIME_OFFSET ( 8, 0, .AHEAD. ) ;
#201 = DIRECTION ( 'NONE',  ( 0.0000000000000000000, 0.0000000000000000000, 1.000000000000000000 ) ) ;
#202 = EDGE_CURVE ( 'NONE', #153, #217, #152, .T. ) ;
#203 = PERSON_AND_ORGANIZATION_ROLE ( 'design_supplier' ) ;
#204 = DATE_AND_TIME ( #177, #214 ) ;
#205 = MANIFOLD_SOLID_BREP ( 'ÇÐ³ý-À­Éì1', #230 ) ;
#206 = APPROVAL ( #75, 'Î´Ö¸¶¨' ) ;
#207 = APPROVAL_DATE_TIME ( #232, #39 ) ;
#208 = DIRECTION ( 'NONE',  ( -0.0000000000000000000, -0.0000000000000000000, -1.000000000000000000 ) ) ;
#209 = EDGE_LOOP ( 'NONE', ( #8, #100, #218, #48 ) ) ;
#210 = APPROVAL_ROLE ( '' ) ;
#211 = CC_DESIGN_PERSON_AND_ORGANIZATION_ASSIGNMENT ( #32, #146, ( #57 ) ) ;
#212 = ADVANCED_FACE ( 'NONE', ( #162 ), #36, .T. ) ;
#213 = LOCAL_TIME ( 15, 29, 32.00000000000000000, #16 ) ;
#214 = LOCAL_TIME ( 15, 29, 32.00000000000000000, #140 ) ;
#215 = ORIENTED_EDGE ( 'NONE', *, *, #245, .T. ) ;
#216 = COORDINATED_UNIVERSAL_TIME_OFFSET ( 8, 0, .AHEAD. ) ;
#217 = VERTEX_POINT ( 'NONE', #147 ) ;
#218 = ORIENTED_EDGE ( 'NONE', *, *, #202, .T. ) ;
#219 = CARTESIAN_POINT ( 'NONE',  ( -12.49999999999999600, 0.0000000000000000000, 4.686795440959294000 ) ) ;
#220 = DIRECTION ( 'NONE',  ( 0.0000000000000000000, 0.0000000000000000000, 1.000000000000000000 ) ) ;
#221 = APPROVAL_DATE_TIME ( #63, #184 ) ;
#222 = CARTESIAN_POINT ( 'NONE',  ( 12.49999999999999600, 1.530808498934191100E-015, 0.0000000000000000000 ) ) ;
#223 = SECURITY_CLASSIFICATION_LEVEL ( 'unclassified' ) ;
#224 = DIRECTION ( 'NONE',  ( 1.000000000000000000, 0.0000000000000000000, 0.0000000000000000000 ) ) ;
#225 = LOCAL_TIME ( 15, 29, 32.00000000000000000, #246 ) ;
#226 = ORIENTED_EDGE ( 'NONE', *, *, #131, .T. ) ;
#227 = DIRECTION ( 'NONE',  ( -1.000000000000000000, 0.0000000000000000000, 0.0000000000000000000 ) ) ;
#228 = APPROVAL_STATUS ( 'not_yet_approved' ) ;
#229 = PERSON_AND_ORGANIZATION_ROLE ( 'design_owner' ) ;
#230 = CLOSED_SHELL ( 'NONE', ( #17, #212, #126, #199 ) ) ;
#231 = AXIS2_PLACEMENT_3D ( 'NONE', #65, #163, #18 ) ;
#232 = DATE_AND_TIME ( #161, #225 ) ;
#233 = AXIS2_PLACEMENT_3D ( 'NONE', #45, #1, #224 ) ;
#234 = APPROVAL_DATE_TIME ( #145, #120 ) ;
#235 = CC_DESIGN_APPROVAL ( #124, ( #110 ) ) ;
#236 = DATE_AND_TIME ( #121, #213 ) ;
#237 = CARTESIAN_POINT ( 'NONE',  ( -12.50000000000000500, 24.99999999999998900, 4.686795440959294000 ) ) ;
#238 = DIRECTION ( 'NONE',  ( -0.06731875912447163300, 0.0000000000000000000, -0.9977315193327017700 ) ) ;
#239 = CARTESIAN_POINT ( 'NONE',  ( 12.50000000000000000, -24.99999999999998900, 3.000000000000000400 ) ) ;
#240 = CALENDAR_DATE ( 2019, 24, 7 ) ;
#241 = APPROVAL_ROLE ( '' ) ;
#242 = APPROVAL_STATUS ( 'not_yet_approved' ) ;
#243 = DATE_TIME_ROLE ( 'creation_date' ) ;
#244 = CALENDAR_DATE ( 2019, 24, 7 ) ;
#245 = EDGE_CURVE ( 'NONE', #56, #122, #72, .T. ) ;
#246 = COORDINATED_UNIVERSAL_TIME_OFFSET ( 8, 0, .AHEAD. ) ;
#247 = EDGE_CURVE ( 'NONE', #56, #153, #30, .T. ) ;
#248 = PERSON ( 'Î´Ö¸¶¨', 'Î´Ö¸¶¨', 'Î´Ö¸¶¨', ('Î´Ö¸¶¨'), ('Î´Ö¸¶¨'), ('Î´Ö¸¶¨') ) ;
#249 = COORDINATED_UNIVERSAL_TIME_OFFSET ( 8, 0, .AHEAD. ) ;
#250 = PRODUCT_DEFINITION_FORMATION_WITH_SPECIFIED_SOURCE ( 'ÈÎºÎ', '', #33, .NOT_KNOWN. ) ;
#251 = CC_DESIGN_DATE_AND_TIME_ASSIGNMENT ( #236, #107, ( #54 ) ) ;
#252 = APPROVAL_PERSON_ORGANIZATION ( #98, #124, #185 ) ;
#253 = CC_DESIGN_APPROVAL ( #184, ( #175 ) ) ;
ENDSEC;
END-ISO-10303-21;
