ISO-10303-21;
HEADER;
FILE_DESCRIPTION (( 'STEP AP203' ),
    '1' );
FILE_NAME ('371533.STEP',
    '2019-07-25T06:13:36',
    ( '' ),
    ( '' ),
    'SwSTEP 2.0',
    'SolidWorks 2016',
    '' );
FILE_SCHEMA (( 'CONFIG_CONTROL_DESIGN' ));
ENDSEC;

DATA;
#1 = CARTESIAN_POINT ( 'NONE',  ( 0.0000000000000000000, 0.0000000000000000000, 0.0000000000000000000 ) ) ;
#2 =( BOUNDED_CURVE ( )  B_SPLINE_CURVE ( 3, ( #79, #103, #81, #225 ),
 .UNSPECIFIED., .F., .T. ) 
 B_SPLINE_CURVE_WITH_KNOTS ( ( 4, 4 ),
 ( 5.235987755982986200, 7.330382858376182800 ),
 .UNSPECIFIED. ) 
 CURVE ( )  GEOMETRIC_REPRESENTATION_ITEM ( )  RATIONAL_B_SPLINE_CURVE ( ( 1.000000000000000000, 0.6666666666666663000, 0.6666666666666663000, 1.000000000000000000 ) ) 
 REPRESENTATION_ITEM ( '' )  );
#3 = ORIENTED_EDGE ( 'NONE', *, *, #260, .T. ) ;
#4 = ADVANCED_FACE ( 'NONE', ( #273 ), #113, .F. ) ;
#5 = LOCAL_TIME ( 14, 13, 36.00000000000000000, #30 ) ;
#6 = AXIS2_PLACEMENT_3D ( 'NONE', #188, #72, #90 ) ;
#7 = PERSON_AND_ORGANIZATION_ROLE ( 'design_supplier' ) ;
#8 = CARTESIAN_POINT ( 'NONE',  ( -19.05000000000000800, -6.972783942093546900, 1.564826904723482000 ) ) ;
#9 = DATE_AND_TIME ( #170, #243 ) ;
#10 = CARTESIAN_POINT ( 'NONE',  ( -15.56360802895323500, -13.01139197104677300, 6.494305708824644100 ) ) ;
#11 = AXIS2_PLACEMENT_3D ( 'NONE', #165, #25, #216 ) ;
#12 = DIRECTION ( 'NONE',  ( 0.0000000000000000000, 0.6325343505460016000, 0.7745323075116673500 ) ) ;
#13 = DATE_AND_TIME ( #234, #108 ) ;
#14 = APPROVAL_STATUS ( 'not_yet_approved' ) ;
#15 = SECURITY_CLASSIFICATION_LEVEL ( 'unclassified' ) ;
#16 = PERSON_AND_ORGANIZATION_ROLE ( 'creator' ) ;
#17 = COORDINATED_UNIVERSAL_TIME_OFFSET ( 8, 0, .AHEAD. ) ;
#18 = VECTOR ( 'NONE', #239, 1000.000000000000000 ) ;
#19 = EDGE_CURVE ( 'NONE', #227, #89, #160, .T. ) ;
#20 = DIRECTION ( 'NONE',  ( 0.4082765531884056100, 0.7071557336614138200, 0.5772703218305810200 ) ) ;
#21 = APPROVAL ( #206, 'Î´Ö¸¶¨' ) ;
#22 = LOCAL_TIME ( 14, 13, 36.00000000000000000, #215 ) ;
#23 = DIRECTION ( 'NONE',  ( 0.0000000000000000000, -0.6325343505460012700, 0.7745323075116675700 ) ) ;
#24 = DIRECTION ( 'NONE',  ( 0.4082765531884057200, -0.7071557336614134900, 0.5772703218305811300 ) ) ;
#25 = DIRECTION ( 'NONE',  ( 0.0000000000000000000, 0.0000000000000000000, 1.000000000000000000 ) ) ;
#26 = ORIENTED_EDGE ( 'NONE', *, *, #126, .F. ) ;
#27 = ADVANCED_FACE ( 'NONE', ( #137 ), #139, .T. ) ;
#28 = PERSON_AND_ORGANIZATION ( #117, #198 ) ;
#29 = APPROVAL_DATE_TIME ( #229, #121 ) ;
#30 = COORDINATED_UNIVERSAL_TIME_OFFSET ( 8, 0, .AHEAD. ) ;
#31 = LINE ( 'NONE', #73, #191 ) ;
#32 = AXIS2_PLACEMENT_3D ( 'NONE', #173, #278, #56 ) ;
#33 = DIRECTION ( 'NONE',  ( -0.4082200218682779400, 0.7070578185427393000, -0.5774302165486714400 ) ) ;
#34 = EDGE_CURVE ( 'NONE', #227, #164, #306, .T. ) ;
#35 = DIRECTION ( 'NONE',  ( 0.0000000000000000000, 0.0000000000000000000, 1.000000000000000000 ) ) ;
#36 = DIRECTION ( 'NONE',  ( 0.0000000000000000000, 0.0000000000000000000, 1.000000000000000000 ) ) ;
#37 = COORDINATED_UNIVERSAL_TIME_OFFSET ( 8, 0, .AHEAD. ) ;
#38 = APPLICATION_CONTEXT ( 'configuration controlled 3d designs of mechanical parts and assemblies' ) ;
#39 = APPROVAL_DATE_TIME ( #99, #178 ) ;
#40 = DATE_TIME_ROLE ( 'creation_date' ) ;
#41 = PLANE ( 'NONE',  #217 ) ;
#42 = SHAPE_DEFINITION_REPRESENTATION ( #224, #96 ) ;
#43 = ORIENTED_EDGE ( 'NONE', *, *, #97, .F. ) ;
#44 = LOCAL_TIME ( 14, 13, 36.00000000000000000, #214 ) ;
#45 = EDGE_CURVE ( 'NONE', #78, #89, #235, .T. ) ;
#46 = APPROVAL_PERSON_ORGANIZATION ( #131, #150, #156 ) ;
#47 = PERSON_AND_ORGANIZATION ( #117, #198 ) ;
#48 = VERTEX_POINT ( 'NONE', #50 ) ;
#49 = PRODUCT_RELATED_PRODUCT_CATEGORY ( 'detail', '', ( #162 ) ) ;
#50 = CARTESIAN_POINT ( 'NONE',  ( -9.525000000000025200, 16.49778394209355200, 15.03241345236171300 ) ) ;
#51 = VECTOR ( 'NONE', #20, 1000.000000000000000 ) ;
#52 = CC_DESIGN_APPROVAL ( #200, ( #154 ) ) ;
#53 = DIRECTION ( 'NONE',  ( -0.5774302165486712200, 0.0000000000000000000, -0.8164400437365592100 ) ) ;
#54 = COORDINATED_UNIVERSAL_TIME_OFFSET ( 8, 0, .AHEAD. ) ;
#55 =( GEOMETRIC_REPRESENTATION_CONTEXT ( 3 ) GLOBAL_UNCERTAINTY_ASSIGNED_CONTEXT ( ( #275 ) ) GLOBAL_UNIT_ASSIGNED_CONTEXT ( ( #232, #287, #60 ) ) REPRESENTATION_CONTEXT ( 'NONE', 'WORKASPACE' ) );
#56 = DIRECTION ( 'NONE',  ( -1.000000000000000000, 0.0000000000000000000, 0.0000000000000000000 ) ) ;
#57 = CC_DESIGN_APPROVAL ( #121, ( #102 ) ) ;
#58 = EDGE_LOOP ( 'NONE', ( #95, #212, #26, #158 ) ) ;
#59 = APPROVAL_STATUS ( 'not_yet_approved' ) ;
#60 =( NAMED_UNIT ( * ) SI_UNIT ( $, .STERADIAN. ) SOLID_ANGLE_UNIT ( ) );
#61 = LOCAL_TIME ( 14, 13, 36.00000000000000000, #266 ) ;
#62 = APPROVAL_PERSON_ORGANIZATION ( #253, #200, #181 ) ;
#63 = APPROVAL_STATUS ( 'not_yet_approved' ) ;
#64 = DIRECTION ( 'NONE',  ( 1.000000000000000000, 0.0000000000000000000, 0.0000000000000000000 ) ) ;
#65 = AXIS2_PLACEMENT_3D ( 'NONE', #228, #33, #12 ) ;
#66 =( BOUNDED_CURVE ( )  B_SPLINE_CURVE ( 3, ( #83, #177, #282, #128 ),
 .UNSPECIFIED., .F., .F. ) 
 B_SPLINE_CURVE_WITH_KNOTS ( ( 4, 4 ),
 ( 0.0000000000000000000, 1.047197551196596500 ),
 .UNSPECIFIED. ) 
 CURVE ( )  GEOMETRIC_REPRESENTATION_ITEM ( )  RATIONAL_B_SPLINE_CURVE ( ( 1.000000000000000000, 0.9106836025229592100, 0.9106836025229592100, 1.000000000000000000 ) ) 
 REPRESENTATION_ITEM ( '' )  );
#67 = VERTEX_POINT ( 'NONE', #219 ) ;
#68 = CC_DESIGN_PERSON_AND_ORGANIZATION_ASSIGNMENT ( #47, #106, ( #154 ) ) ;
#69 = CARTESIAN_POINT ( 'NONE',  ( 19.05000000000000400, 2.332952152375707600E-015, 28.50000000000000000 ) ) ;
#70 = DIRECTION ( 'NONE',  ( 0.4082200218682777700, 0.7070578185427395200, 0.5774302165486711000 ) ) ;
#71 = CIRCLE ( 'NONE', #11, 19.05000000000000400 ) ;
#72 = DIRECTION ( 'NONE',  ( -0.0000000000000000000, -0.0000000000000000000, -1.000000000000000000 ) ) ;
#73 = CARTESIAN_POINT ( 'NONE',  ( 7.073520084914156800, -12.25169617543019200, 38.50139043989909000 ) ) ;
#74 = DATE_AND_TIME ( #145, #5 ) ;
#75 = ORIENTED_EDGE ( 'NONE', *, *, #277, .F. ) ;
#76 = PRODUCT_DEFINITION ( 'Î´Öª', '', #129, #166 ) ;
#77 = LOCAL_TIME ( 14, 13, 36.00000000000000000, #255 ) ;
#78 = VERTEX_POINT ( 'NONE', #296 ) ;
#79 = CARTESIAN_POINT ( 'NONE',  ( 19.05000000000001800, 3.494391853509485400E-032, 15.03241345236179600 ) ) ;
#80 = APPROVAL_PERSON_ORGANIZATION ( #118, #281, #180 ) ;
#81 = CARTESIAN_POINT ( 'NONE',  ( 4.762499999999990400, -24.74667591314035100, -5.168966369095655500 ) ) ;
#82 = AXIS2_PLACEMENT_3D ( 'NONE', #151, #35, #237 ) ;
#83 = CARTESIAN_POINT ( 'NONE',  ( -19.05000000000000400, 0.0000000000000000000, 1.564826904723488800 ) ) ;
#84 = PERSON_AND_ORGANIZATION ( #117, #198 ) ;
#85 = ORIENTED_EDGE ( 'NONE', *, *, #126, .T. ) ;
#86 = DIRECTION ( 'NONE',  ( 0.0000000000000000000, 0.0000000000000000000, 1.000000000000000000 ) ) ;
#87 = PERSON_AND_ORGANIZATION_ROLE ( 'design_owner' ) ;
#88 = VECTOR ( 'NONE', #127, 1000.000000000000000 ) ;
#89 = VERTEX_POINT ( 'NONE', #270 ) ;
#90 = DIRECTION ( 'NONE',  ( -1.000000000000000000, 0.0000000000000000000, 0.0000000000000000000 ) ) ;
#91 = LOCAL_TIME ( 14, 13, 36.00000000000000000, #262 ) ;
#92 = AXIS2_PLACEMENT_3D ( 'NONE', #182, #70, #23 ) ;
#93 = CARTESIAN_POINT ( 'NONE',  ( 21.36491780749591400, 0.0000000000000000000, 13.39585933566259100 ) ) ;
#94 = CC_DESIGN_APPROVAL ( #281, ( #124 ) ) ;
#95 = ORIENTED_EDGE ( 'NONE', *, *, #274, .F. ) ;
#96 = ADVANCED_BREP_SHAPE_REPRESENTATION ( '371533', ( #163, #82 ), #55 ) ;
#97 = EDGE_CURVE ( 'NONE', #279, #164, #71, .T. ) ;
#98 = CC_DESIGN_APPROVAL ( #21, ( #271 ) ) ;
#99 = DATE_AND_TIME ( #218, #61 ) ;
#100 = ORIENTED_EDGE ( 'NONE', *, *, #299, .F. ) ;
#101 = CARTESIAN_POINT ( 'NONE',  ( -19.05000000000000400, 0.0000000000000000000, 1.564826904723488800 ) ) ;
#102 = SECURITY_CLASSIFICATION ( '', '', #109 ) ;
#103 = CARTESIAN_POINT ( 'NONE',  ( 19.05000000000001500, -16.49778394209357300, -5.168966369095610200 ) ) ;
#104 = ORIENTED_EDGE ( 'NONE', *, *, #19, .F. ) ;
#105 = APPROVAL_ROLE ( '' ) ;
#106 = PERSON_AND_ORGANIZATION_ROLE ( 'creator' ) ;
#107 = DIRECTION ( 'NONE',  ( 1.000000000000000000, 0.0000000000000000000, 0.0000000000000000000 ) ) ;
#108 = LOCAL_TIME ( 14, 13, 36.00000000000000000, #37 ) ;
#109 = SECURITY_CLASSIFICATION_LEVEL ( 'unclassified' ) ;
#110 = APPROVAL_DATE_TIME ( #9, #200 ) ;
#111 = DATE_TIME_ROLE ( 'classification_date' ) ;
#112 = DIRECTION ( 'NONE',  ( 0.8164400437365592100, 0.0000000000000000000, -0.5774302165486712200 ) ) ;
#113 = PLANE ( 'NONE',  #265 ) ;
#114 = LINE ( 'NONE', #203, #88 ) ;
#115 = VECTOR ( 'NONE', #268, 1000.000000000000100 ) ;
#116 = CC_DESIGN_PERSON_AND_ORGANIZATION_ASSIGNMENT ( #295, #258, ( #129 ) ) ;
#117 = PERSON ( 'Î´Ö¸¶¨', 'Î´Ö¸¶¨', 'Î´Ö¸¶¨', ('Î´Ö¸¶¨'), ('Î´Ö¸¶¨'), ('Î´Ö¸¶¨') ) ;
#118 = PERSON_AND_ORGANIZATION ( #117, #198 ) ;
#119 = PERSON_AND_ORGANIZATION ( #117, #198 ) ;
#120 = FACE_OUTER_BOUND ( 'NONE', #58, .T. ) ;
#121 = APPROVAL ( #59, 'Î´Ö¸¶¨' ) ;
#122 = DATE_AND_TIME ( #204, #22 ) ;
#123 = CARTESIAN_POINT ( 'NONE',  ( 19.05000000000001800, 3.494391853509485400E-032, 15.03241345236179600 ) ) ;
#124 = SECURITY_CLASSIFICATION ( '', '', #15 ) ;
#125 = CARTESIAN_POINT ( 'NONE',  ( 4.762499999999983300, 24.74667591314036100, -5.168966369095691100 ) ) ;
#126 = EDGE_CURVE ( 'NONE', #48, #89, #31, .T. ) ;
#127 = DIRECTION ( 'NONE',  ( -0.0000000000000000000, -0.0000000000000000000, -1.000000000000000000 ) ) ;
#128 = CARTESIAN_POINT ( 'NONE',  ( -9.525000000000025200, 16.49778394209355200, 15.03241345236171300 ) ) ;
#129 = PRODUCT_DEFINITION_FORMATION_WITH_SPECIFIED_SOURCE ( 'ÈÎºÎ', '', #162, .NOT_KNOWN. ) ;
#130 = APPLICATION_CONTEXT ( 'configuration controlled 3d designs of mechanical parts and assemblies' ) ;
#131 = PERSON_AND_ORGANIZATION ( #117, #198 ) ;
#132 = DATE_TIME_ROLE ( 'creation_date' ) ;
#133 = PERSON_AND_ORGANIZATION_ROLE ( 'design_owner' ) ;
#134 = APPLICATION_CONTEXT ( 'configuration controlled 3d designs of mechanical parts and assemblies' ) ;
#135 = CC_DESIGN_DATE_AND_TIME_ASSIGNMENT ( #211, #40, ( #154 ) ) ;
#136 = CC_DESIGN_PERSON_AND_ORGANIZATION_ASSIGNMENT ( #256, #87, ( #189 ) ) ;
#137 = FACE_OUTER_BOUND ( 'NONE', #248, .T. ) ;
#138 = CC_DESIGN_PERSON_AND_ORGANIZATION_ASSIGNMENT ( #119, #133, ( #162 ) ) ;
#139 = PLANE ( 'NONE',  #92 ) ;
#140 = ORIENTED_EDGE ( 'NONE', *, *, #45, .F. ) ;
#141 = CC_DESIGN_SECURITY_CLASSIFICATION ( #102, ( #129 ) ) ;
#142 = DATE_AND_TIME ( #210, #77 ) ;
#143 = ADVANCED_FACE ( 'NONE', ( #247 ), #167, .T. ) ;
#144 = ORIENTED_EDGE ( 'NONE', *, *, #260, .F. ) ;
#145 = CALENDAR_DATE ( 2019, 25, 7 ) ;
#146 = ORIENTED_EDGE ( 'NONE', *, *, #97, .T. ) ;
#147 = CALENDAR_DATE ( 2019, 25, 7 ) ;
#148 = ORIENTED_EDGE ( 'NONE', *, *, #284, .T. ) ;
#149 =( BOUNDED_CURVE ( )  B_SPLINE_CURVE ( 3, ( #308, #10, #8, #101 ),
 .UNSPECIFIED., .F., .T. ) 
 B_SPLINE_CURVE_WITH_KNOTS ( ( 4, 4 ),
 ( 5.235987755982989700, 6.283185307179586200 ),
 .UNSPECIFIED. ) 
 CURVE ( )  GEOMETRIC_REPRESENTATION_ITEM ( )  RATIONAL_B_SPLINE_CURVE ( ( 1.000000000000000000, 0.9106836025229592100, 0.9106836025229592100, 1.000000000000000000 ) ) 
 REPRESENTATION_ITEM ( '' )  );
#150 = APPROVAL ( #63, 'Î´Ö¸¶¨' ) ;
#151 = CARTESIAN_POINT ( 'NONE',  ( 0.0000000000000000000, 0.0000000000000000000, 0.0000000000000000000 ) ) ;
#152 = CARTESIAN_POINT ( 'NONE',  ( 19.05000000000000400, 2.332952152375707600E-015, 0.0000000000000000000 ) ) ;
#153 = PERSON_AND_ORGANIZATION_ROLE ( 'creator' ) ;
#154 = PRODUCT_DEFINITION ( 'Î´Öª', '', #271, #283 ) ;
#155 = APPLICATION_PROTOCOL_DEFINITION ( 'international standard', 'config_control_design', 1994, #134 ) ;
#156 = APPROVAL_ROLE ( '' ) ;
#157 = PERSON_AND_ORGANIZATION ( #117, #198 ) ;
#158 = ORIENTED_EDGE ( 'NONE', *, *, #252, .F. ) ;
#159 = DIRECTION ( 'NONE',  ( 0.0000000000000000000, 0.0000000000000000000, 1.000000000000000000 ) ) ;
#160 = LINE ( 'NONE', #93, #115 ) ;
#161 = CC_DESIGN_SECURITY_CLASSIFICATION ( #124, ( #271 ) ) ;
#162 = PRODUCT ( '371533', '371533', '', ( #209 ) ) ;
#163 = MANIFOLD_SOLID_BREP ( 'ÇÐ³ý-À­Éì3', #264 ) ;
#164 = VERTEX_POINT ( 'NONE', #152 ) ;
#165 = CARTESIAN_POINT ( 'NONE',  ( 0.0000000000000000000, 0.0000000000000000000, 0.0000000000000000000 ) ) ;
#166 = DESIGN_CONTEXT ( 'detailed design', #310, 'design' ) ;
#167 = CYLINDRICAL_SURFACE ( 'NONE', #6, 19.05000000000000400 ) ;
#168 = ORIENTED_EDGE ( 'NONE', *, *, #252, .T. ) ;
#169 = PERSON_AND_ORGANIZATION ( #117, #198 ) ;
#170 = CALENDAR_DATE ( 2019, 25, 7 ) ;
#171 = APPROVAL_STATUS ( 'not_yet_approved' ) ;
#172 = CALENDAR_DATE ( 2019, 25, 7 ) ;
#173 = CARTESIAN_POINT ( 'NONE',  ( 0.0000000000000000000, 0.0000000000000000000, 28.50000000000000000 ) ) ;
#174 = FACE_OUTER_BOUND ( 'NONE', #223, .T. ) ;
#175 = ORIENTED_EDGE ( 'NONE', *, *, #34, .T. ) ;
#176 = CARTESIAN_POINT ( 'NONE',  ( 0.0000000000000000000, 0.0000000000000000000, 0.0000000000000000000 ) ) ;
#177 = CARTESIAN_POINT ( 'NONE',  ( -19.05000000000000800, 6.972783942093546900, 1.564826904723482000 ) ) ;
#178 = APPROVAL ( #171, 'Î´Ö¸¶¨' ) ;
#179 = APPROVAL_PERSON_ORGANIZATION ( #194, #178, #207 ) ;
#180 = APPROVAL_ROLE ( '' ) ;
#181 = APPROVAL_ROLE ( '' ) ;
#182 = CARTESIAN_POINT ( 'NONE',  ( 32.04293994002429000, -18.49999999999991800, 28.50000000000000000 ) ) ;
#183 = CYLINDRICAL_SURFACE ( 'NONE', #32, 19.05000000000000400 ) ;
#184 = ORIENTED_EDGE ( 'NONE', *, *, #19, .T. ) ;
#185 = CC_DESIGN_PERSON_AND_ORGANIZATION_ASSIGNMENT ( #222, #7, ( #129 ) ) ;
#186 = DATE_AND_TIME ( #272, #294 ) ;
#187 = AXIS2_PLACEMENT_3D ( 'NONE', #257, #86, #107 ) ;
#188 = CARTESIAN_POINT ( 'NONE',  ( 0.0000000000000000000, 0.0000000000000000000, 28.50000000000000000 ) ) ;
#189 = PRODUCT ( '371533', '371533', '', ( #233 ) ) ;
#190 = CC_DESIGN_PERSON_AND_ORGANIZATION_ASSIGNMENT ( #169, #290, ( #124 ) ) ;
#191 = VECTOR ( 'NONE', #24, 1000.000000000000100 ) ;
#192 = ORIENTED_EDGE ( 'NONE', *, *, #34, .F. ) ;
#193 = ADVANCED_FACE ( 'NONE', ( #120 ), #41, .F. ) ;
#194 = PERSON_AND_ORGANIZATION ( #117, #198 ) ;
#195 = ADVANCED_FACE ( 'NONE', ( #174 ), #183, .T. ) ;
#196 =( BOUNDED_CURVE ( )  B_SPLINE_CURVE ( 3, ( #280, #302, #125, #202 ),
 .UNSPECIFIED., .F., .F. ) 
 B_SPLINE_CURVE_WITH_KNOTS ( ( 4, 4 ),
 ( 5.235987755982986200, 7.330382858376182800 ),
 .UNSPECIFIED. ) 
 CURVE ( )  GEOMETRIC_REPRESENTATION_ITEM ( )  RATIONAL_B_SPLINE_CURVE ( ( 1.000000000000000000, 0.6666666666666663000, 0.6666666666666663000, 1.000000000000000000 ) ) 
 REPRESENTATION_ITEM ( '' )  );
#197 = APPROVAL_DATE_TIME ( #186, #281 ) ;
#198 = ORGANIZATION ( 'Î´Ö¸¶¨', 'Î´Ö¸¶¨', '' ) ;
#199 = CARTESIAN_POINT ( 'NONE',  ( -19.05000000000000400, 0.0000000000000000000, 0.0000000000000000000 ) ) ;
#200 = APPROVAL ( #289, 'Î´Ö¸¶¨' ) ;
#201 = CC_DESIGN_DATE_AND_TIME_ASSIGNMENT ( #305, #300, ( #102 ) ) ;
#202 = CARTESIAN_POINT ( 'NONE',  ( -9.525000000000025200, 16.49778394209355200, 15.03241345236171300 ) ) ;
#203 = CARTESIAN_POINT ( 'NONE',  ( -19.05000000000000400, 0.0000000000000000000, 28.50000000000000000 ) ) ;
#204 = CALENDAR_DATE ( 2019, 25, 7 ) ;
#205 = CALENDAR_DATE ( 2019, 25, 7 ) ;
#206 = APPROVAL_STATUS ( 'not_yet_approved' ) ;
#207 = APPROVAL_ROLE ( '' ) ;
#208 = APPLICATION_PROTOCOL_DEFINITION ( 'international standard', 'config_control_design', 1994, #310 ) ;
#209 = MECHANICAL_CONTEXT ( 'NONE', #38, 'mechanical' ) ;
#210 = CALENDAR_DATE ( 2019, 25, 7 ) ;
#211 = DATE_AND_TIME ( #147, #301 ) ;
#212 = ORIENTED_EDGE ( 'NONE', *, *, #45, .T. ) ;
#213 = CARTESIAN_POINT ( 'NONE',  ( -7.073520084914152400, -12.25169617543021200, 18.49860956010091000 ) ) ;
#214 = COORDINATED_UNIVERSAL_TIME_OFFSET ( 8, 0, .AHEAD. ) ;
#215 = COORDINATED_UNIVERSAL_TIME_OFFSET ( 8, 0, .AHEAD. ) ;
#216 = DIRECTION ( 'NONE',  ( 1.000000000000000000, 0.0000000000000000000, 0.0000000000000000000 ) ) ;
#217 = AXIS2_PLACEMENT_3D ( 'NONE', #244, #112, #53 ) ;
#218 = CALENDAR_DATE ( 2019, 25, 7 ) ;
#219 = CARTESIAN_POINT ( 'NONE',  ( -19.05000000000000400, 0.0000000000000000000, 1.564826904723488800 ) ) ;
#220 = ORIENTED_EDGE ( 'NONE', *, *, #284, .F. ) ;
#221 = PRODUCT_DEFINITION_SHAPE ( 'NONE', 'NONE',  #154 ) ;
#222 = PERSON_AND_ORGANIZATION ( #117, #198 ) ;
#223 = EDGE_LOOP ( 'NONE', ( #192, #307, #240, #3, #146 ) ) ;
#224 = PRODUCT_DEFINITION_SHAPE ( 'NONE', 'NONE',  #76 ) ;
#225 = CARTESIAN_POINT ( 'NONE',  ( -9.525000000000019900, -16.49778394209356200, 15.03241345236172000 ) ) ;
#226 = PERSON_AND_ORGANIZATION ( #117, #198 ) ;
#227 = VERTEX_POINT ( 'NONE', #123 ) ;
#228 = CARTESIAN_POINT ( 'NONE',  ( 33.34197804570094100, 19.24999999999992500, 28.50000000000000000 ) ) ;
#229 = DATE_AND_TIME ( #205, #44 ) ;
#230 = PERSON_AND_ORGANIZATION_ROLE ( 'classification_officer' ) ;
#231 = CC_DESIGN_DATE_AND_TIME_ASSIGNMENT ( #122, #132, ( #76 ) ) ;
#232 =( LENGTH_UNIT ( ) NAMED_UNIT ( * ) SI_UNIT ( .MILLI., .METRE. ) );
#233 = MECHANICAL_CONTEXT ( 'NONE', #134, 'mechanical' ) ;
#234 = CALENDAR_DATE ( 2019, 25, 7 ) ;
#235 = LINE ( 'NONE', #213, #51 ) ;
#236 = EDGE_LOOP ( 'NONE', ( #43, #100 ) ) ;
#237 = DIRECTION ( 'NONE',  ( 1.000000000000000000, 0.0000000000000000000, 0.0000000000000000000 ) ) ;
#238 = CC_DESIGN_PERSON_AND_ORGANIZATION_ASSIGNMENT ( #84, #16, ( #76 ) ) ;
#239 = DIRECTION ( 'NONE',  ( -0.0000000000000000000, -0.0000000000000000000, -1.000000000000000000 ) ) ;
#240 = ORIENTED_EDGE ( 'NONE', *, *, #274, .T. ) ;
#241 = DIRECTION ( 'NONE',  ( 1.000000000000000000, 0.0000000000000000000, -0.0000000000000000000 ) ) ;
#242 = PERSON_AND_ORGANIZATION ( #117, #198 ) ;
#243 = LOCAL_TIME ( 14, 13, 36.00000000000000000, #54 ) ;
#244 = CARTESIAN_POINT ( 'NONE',  ( 0.0000000000000000000, -24.50000000000000000, 28.49999999999999600 ) ) ;
#245 = ADVANCED_FACE ( 'NONE', ( #292 ), #304, .F. ) ;
#246 = CC_DESIGN_DATE_AND_TIME_ASSIGNMENT ( #13, #111, ( #124 ) ) ;
#247 = FACE_OUTER_BOUND ( 'NONE', #297, .T. ) ;
#248 = EDGE_LOOP ( 'NONE', ( #104, #148, #85 ) ) ;
#249 = CC_DESIGN_APPROVAL ( #178, ( #129 ) ) ;
#250 = AXIS2_PLACEMENT_3D ( 'NONE', #176, #36, #64 ) ;
#251 = APPROVAL_PERSON_ORGANIZATION ( #242, #21, #309 ) ;
#252 = EDGE_CURVE ( 'NONE', #67, #48, #66, .T. ) ;
#253 = PERSON_AND_ORGANIZATION ( #117, #198 ) ;
#254 = APPLICATION_PROTOCOL_DEFINITION ( 'international standard', 'config_control_design', 1994, #130 ) ;
#255 = COORDINATED_UNIVERSAL_TIME_OFFSET ( 8, 0, .AHEAD. ) ;
#256 = PERSON_AND_ORGANIZATION ( #117, #198 ) ;
#257 = CARTESIAN_POINT ( 'NONE',  ( 0.0000000000000000000, 0.0000000000000000000, 0.0000000000000000000 ) ) ;
#258 = PERSON_AND_ORGANIZATION_ROLE ( 'creator' ) ;
#259 = PERSON_AND_ORGANIZATION_ROLE ( 'design_supplier' ) ;
#260 = EDGE_CURVE ( 'NONE', #67, #279, #114, .T. ) ;
#261 = PRODUCT_RELATED_PRODUCT_CATEGORY ( 'detail', '', ( #189 ) ) ;
#262 = COORDINATED_UNIVERSAL_TIME_OFFSET ( 8, 0, .AHEAD. ) ;
#263 = COORDINATED_UNIVERSAL_TIME_OFFSET ( 8, 0, .AHEAD. ) ;
#264 = CLOSED_SHELL ( 'NONE', ( #143, #195, #193, #4, #27, #245 ) ) ;
#265 = AXIS2_PLACEMENT_3D ( 'NONE', #1, #159, #241 ) ;
#266 = COORDINATED_UNIVERSAL_TIME_OFFSET ( 8, 0, .AHEAD. ) ;
#267 = CIRCLE ( 'NONE', #250, 19.05000000000000400 ) ;
#268 = DIRECTION ( 'NONE',  ( -0.8165531063768113300, 1.232595176226813500E-032, 0.5772703218305785800 ) ) ;
#269 = CC_DESIGN_PERSON_AND_ORGANIZATION_ASSIGNMENT ( #157, #230, ( #102 ) ) ;
#270 = CARTESIAN_POINT ( 'NONE',  ( 3.469446951953614200E-015, 1.734723475976807100E-015, 28.49999999999999600 ) ) ;
#271 = PRODUCT_DEFINITION_FORMATION_WITH_SPECIFIED_SOURCE ( 'ÈÎºÎ', '', #189, .NOT_KNOWN. ) ;
#272 = CALENDAR_DATE ( 2019, 25, 7 ) ;
#273 = FACE_OUTER_BOUND ( 'NONE', #236, .T. ) ;
#274 = EDGE_CURVE ( 'NONE', #78, #67, #149, .T. ) ;
#275 = UNCERTAINTY_MEASURE_WITH_UNIT (LENGTH_MEASURE( 1.000000000000000100E-005 ), #232, 'distance_accuracy_value', 'NONE');
#276 = PERSON_AND_ORGANIZATION ( #117, #198 ) ;
#277 = EDGE_CURVE ( 'NONE', #227, #78, #2, .T. ) ;
#278 = DIRECTION ( 'NONE',  ( -0.0000000000000000000, -0.0000000000000000000, -1.000000000000000000 ) ) ;
#279 = VERTEX_POINT ( 'NONE', #199 ) ;
#280 = CARTESIAN_POINT ( 'NONE',  ( 19.05000000000001800, 3.494391853509485400E-032, 15.03241345236179600 ) ) ;
#281 = APPROVAL ( #14, 'Î´Ö¸¶¨' ) ;
#282 = CARTESIAN_POINT ( 'NONE',  ( -15.56360802895323800, 13.01139197104676600, 6.494305708824635200 ) ) ;
#283 = DESIGN_CONTEXT ( 'detailed design', #130, 'design' ) ;
#284 = EDGE_CURVE ( 'NONE', #227, #48, #196, .T. ) ;
#285 = APPROVAL_PERSON_ORGANIZATION ( #28, #121, #105 ) ;
#286 = APPROVAL_DATE_TIME ( #74, #150 ) ;
#287 =( NAMED_UNIT ( * ) PLANE_ANGLE_UNIT ( ) SI_UNIT ( $, .RADIAN. ) );
#288 = CC_DESIGN_APPROVAL ( #150, ( #76 ) ) ;
#289 = APPROVAL_STATUS ( 'not_yet_approved' ) ;
#290 = PERSON_AND_ORGANIZATION_ROLE ( 'classification_officer' ) ;
#291 = APPROVAL_DATE_TIME ( #142, #21 ) ;
#292 = FACE_OUTER_BOUND ( 'NONE', #312, .T. ) ;
#293 = ORIENTED_EDGE ( 'NONE', *, *, #299, .T. ) ;
#294 = LOCAL_TIME ( 14, 13, 36.00000000000000000, #17 ) ;
#295 = PERSON_AND_ORGANIZATION ( #117, #198 ) ;
#296 = CARTESIAN_POINT ( 'NONE',  ( -9.525000000000019900, -16.49778394209356200, 15.03241345236172000 ) ) ;
#297 = EDGE_LOOP ( 'NONE', ( #220, #175, #293, #144, #168 ) ) ;
#298 = CC_DESIGN_PERSON_AND_ORGANIZATION_ASSIGNMENT ( #226, #153, ( #271 ) ) ;
#299 = EDGE_CURVE ( 'NONE', #164, #279, #267, .T. ) ;
#300 = DATE_TIME_ROLE ( 'classification_date' ) ;
#301 = LOCAL_TIME ( 14, 13, 36.00000000000000000, #263 ) ;
#302 = CARTESIAN_POINT ( 'NONE',  ( 19.05000000000001500, 16.49778394209358400, -5.168966369095644900 ) ) ;
#303 = CC_DESIGN_PERSON_AND_ORGANIZATION_ASSIGNMENT ( #276, #259, ( #271 ) ) ;
#304 = PLANE ( 'NONE',  #65 ) ;
#305 = DATE_AND_TIME ( #172, #91 ) ;
#306 = LINE ( 'NONE', #69, #18 ) ;
#307 = ORIENTED_EDGE ( 'NONE', *, *, #277, .T. ) ;
#308 = CARTESIAN_POINT ( 'NONE',  ( -9.525000000000019900, -16.49778394209356200, 15.03241345236172000 ) ) ;
#309 = APPROVAL_ROLE ( '' ) ;
#310 = APPLICATION_CONTEXT ( 'configuration controlled 3d designs of mechanical parts and assemblies' ) ;
#311 = APPLICATION_PROTOCOL_DEFINITION ( 'international standard', 'config_control_design', 1994, #38 ) ;
#312 = EDGE_LOOP ( 'NONE', ( #184, #140, #75 ) ) ;
ENDSEC;
END-ISO-10303-21;
