ISO-10303-21;
HEADER;
FILE_DESCRIPTION (( 'STEP AP203' ),
    '1' );
FILE_NAME ('367500.STEP',
    '2019-07-24T06:16:56',
    ( '' ),
    ( '' ),
    'SwSTEP 2.0',
    'SolidWorks 2016',
    '' );
FILE_SCHEMA (( 'CONFIG_CONTROL_DESIGN' ));
ENDSEC;

DATA;
#1 = APPROVAL_STATUS ( 'not_yet_approved' ) ;
#2 = DESIGN_CONTEXT ( 'detailed design', #95, 'design' ) ;
#3 = PERSON_AND_ORGANIZATION_ROLE ( 'design_supplier' ) ;
#4 = CC_DESIGN_PERSON_AND_ORGANIZATION_ASSIGNMENT ( #132, #26, ( #298 ) ) ;
#5 = PERSON_AND_ORGANIZATION_ROLE ( 'design_supplier' ) ;
#6 = DATE_AND_TIME ( #146, #273 ) ;
#7 = FACE_OUTER_BOUND ( 'NONE', #233, .T. ) ;
#8 = EDGE_CURVE ( 'NONE', #237, #152, #181, .T. ) ;
#9 = APPROVAL ( #240, 'Î´Ö¸¶¨' ) ;
#10 = VECTOR ( 'NONE', #252, 1000.000000000000000 ) ;
#11 = APPROVAL_ROLE ( '' ) ;
#12 = COORDINATED_UNIVERSAL_TIME_OFFSET ( 8, 0, .AHEAD. ) ;
#13 = SHAPE_DEFINITION_REPRESENTATION ( #158, #247 ) ;
#14 = CARTESIAN_POINT ( 'NONE',  ( 19.22176690087931300, 24.96105190941717900, 0.0000000000000000000 ) ) ;
#15 = DATE_AND_TIME ( #203, #265 ) ;
#16 = PERSON_AND_ORGANIZATION ( #115, #221 ) ;
#17 = CARTESIAN_POINT ( 'NONE',  ( 0.0000000000000000000, 0.0000000000000000000, 0.0000000000000000000 ) ) ;
#18 = CARTESIAN_POINT ( 'NONE',  ( 24.22176690087930200, 29.96105190941717200, 5.000000000000000000 ) ) ;
#19 = DIRECTION ( 'NONE',  ( -0.7071067811865409100, -0.7071067811865541200, 0.0000000000000000000 ) ) ;
#20 = LOCAL_TIME ( 14, 16, 56.00000000000000000, #162 ) ;
#21 = COORDINATED_UNIVERSAL_TIME_OFFSET ( 8, 0, .AHEAD. ) ;
#22 = ORIENTED_EDGE ( 'NONE', *, *, #107, .T. ) ;
#23 = PLANE ( 'NONE',  #150 ) ;
#24 = CC_DESIGN_APPROVAL ( #9, ( #80 ) ) ;
#25 = CARTESIAN_POINT ( 'NONE',  ( 19.22176690087931300, 24.96105190941717900, 0.0000000000000000000 ) ) ;
#26 = PERSON_AND_ORGANIZATION_ROLE ( 'creator' ) ;
#27 = APPROVAL_DATE_TIME ( #235, #31 ) ;
#28 = APPLICATION_CONTEXT ( 'configuration controlled 3d designs of mechanical parts and assemblies' ) ;
#29 = ORIENTED_EDGE ( 'NONE', *, *, #191, .F. ) ;
#30 = PERSON_AND_ORGANIZATION_ROLE ( 'classification_officer' ) ;
#31 = APPROVAL ( #1, 'Î´Ö¸¶¨' ) ;
#32 = PERSON_AND_ORGANIZATION ( #115, #221 ) ;
#33 = VECTOR ( 'NONE', #68, 1000.000000000000000 ) ;
#34 = EDGE_LOOP ( 'NONE', ( #294, #309, #155, #110 ) ) ;
#35 = EDGE_CURVE ( 'NONE', #245, #227, #190, .T. ) ;
#36 = ORIENTED_EDGE ( 'NONE', *, *, #35, .F. ) ;
#37 = CC_DESIGN_APPROVAL ( #182, ( #298 ) ) ;
#38 = AXIS2_PLACEMENT_3D ( 'NONE', #188, #207, #88 ) ;
#39 = PERSON_AND_ORGANIZATION ( #115, #221 ) ;
#40 = FACE_OUTER_BOUND ( 'NONE', #47, .T. ) ;
#41 = ORIENTED_EDGE ( 'NONE', *, *, #156, .F. ) ;
#42 = ORIENTED_EDGE ( 'NONE', *, *, #55, .F. ) ;
#43 = DIRECTION ( 'NONE',  ( 0.0000000000000000000, -0.0000000000000000000, 1.000000000000000000 ) ) ;
#44 = DATE_AND_TIME ( #49, #268 ) ;
#45 = APPROVAL_PERSON_ORGANIZATION ( #202, #84, #94 ) ;
#46 = CARTESIAN_POINT ( 'NONE',  ( 24.22176690087930200, 29.96105190941717200, 0.0000000000000000000 ) ) ;
#47 = EDGE_LOOP ( 'NONE', ( #64, #296, #29, #36 ) ) ;
#48 = CARTESIAN_POINT ( 'NONE',  ( 19.22176690087931300, 24.96105190941717900, 5.000000000000000000 ) ) ;
#49 = CALENDAR_DATE ( 2019, 24, 7 ) ;
#50 = ORIENTED_EDGE ( 'NONE', *, *, #107, .F. ) ;
#51 = CARTESIAN_POINT ( 'NONE',  ( 24.22176690087930200, 29.96105190941717200, 5.000000000000000000 ) ) ;
#52 = APPROVAL_STATUS ( 'not_yet_approved' ) ;
#53 = SECURITY_CLASSIFICATION_LEVEL ( 'unclassified' ) ;
#54 = PERSON_AND_ORGANIZATION ( #115, #221 ) ;
#55 = EDGE_CURVE ( 'NONE', #91, #106, #173, .T. ) ;
#56 = CC_DESIGN_PERSON_AND_ORGANIZATION_ASSIGNMENT ( #260, #78, ( #134 ) ) ;
#57 = DATE_AND_TIME ( #244, #70 ) ;
#58 = DIRECTION ( 'NONE',  ( -1.000000000000000000, -0.0000000000000000000, -0.0000000000000000000 ) ) ;
#59 = COORDINATED_UNIVERSAL_TIME_OFFSET ( 8, 0, .AHEAD. ) ;
#60 = VECTOR ( 'NONE', #58, 1000.000000000000000 ) ;
#61 = CC_DESIGN_PERSON_AND_ORGANIZATION_ASSIGNMENT ( #125, #5, ( #242 ) ) ;
#62 = EDGE_CURVE ( 'NONE', #91, #245, #308, .T. ) ;
#63 = FACE_OUTER_BOUND ( 'NONE', #85, .T. ) ;
#64 = ORIENTED_EDGE ( 'NONE', *, *, #250, .F. ) ;
#65 = APPROVAL_PERSON_ORGANIZATION ( #16, #182, #120 ) ;
#66 = PERSON_AND_ORGANIZATION ( #115, #221 ) ;
#67 = PRODUCT ( '367500', '367500', '', ( #124 ) ) ;
#68 = DIRECTION ( 'NONE',  ( -0.7071067811865473500, -0.7071067811865477900, -0.0000000000000000000 ) ) ;
#69 = CARTESIAN_POINT ( 'NONE',  ( 35.32176690087923300, 29.96105190941717200, 5.000000000000000000 ) ) ;
#70 = LOCAL_TIME ( 14, 16, 56.00000000000000000, #198 ) ;
#71 = CARTESIAN_POINT ( 'NONE',  ( 19.22176690087931300, 24.96105190941717900, 5.000000000000000000 ) ) ;
#72 = ORIENTED_EDGE ( 'NONE', *, *, #191, .T. ) ;
#73 = MANIFOLD_SOLID_BREP ( 'Í¹Ì¨-À­Éì1', #204 ) ;
#74 = APPLICATION_PROTOCOL_DEFINITION ( 'international standard', 'config_control_design', 1994, #140 ) ;
#75 = PERSON_AND_ORGANIZATION_ROLE ( 'design_owner' ) ;
#76 = PERSON_AND_ORGANIZATION ( #115, #221 ) ;
#77 = LINE ( 'NONE', #51, #60 ) ;
#78 = PERSON_AND_ORGANIZATION_ROLE ( 'creator' ) ;
#79 = ADVANCED_FACE ( 'NONE', ( #7 ), #305, .F. ) ;
#80 = SECURITY_CLASSIFICATION ( '', '', #53 ) ;
#81 = VECTOR ( 'NONE', #129, 1000.000000000000000 ) ;
#82 = COORDINATED_UNIVERSAL_TIME_OFFSET ( 8, 0, .AHEAD. ) ;
#83 = LINE ( 'NONE', #230, #211 ) ;
#84 = APPROVAL ( #297, 'Î´Ö¸¶¨' ) ;
#85 = EDGE_LOOP ( 'NONE', ( #176, #216, #22, #225 ) ) ;
#86 = AXIS2_PLACEMENT_3D ( 'NONE', #238, #119, #271 ) ;
#87 = DATE_AND_TIME ( #215, #20 ) ;
#88 = DIRECTION ( 'NONE',  ( 0.7071067811865473500, 0.7071067811865477900, 0.0000000000000000000 ) ) ;
#89 = PLANE ( 'NONE',  #185 ) ;
#90 = APPROVAL_DATE_TIME ( #154, #246 ) ;
#91 = VERTEX_POINT ( 'NONE', #257 ) ;
#92 = CARTESIAN_POINT ( 'NONE',  ( 40.32176690087931800, 24.96105190941717900, 5.000000000000000000 ) ) ;
#93 = DIRECTION ( 'NONE',  ( -1.000000000000000000, -0.0000000000000000000, -0.0000000000000000000 ) ) ;
#94 = APPROVAL_ROLE ( '' ) ;
#95 = APPLICATION_CONTEXT ( 'configuration controlled 3d designs of mechanical parts and assemblies' ) ;
#96 = ORIENTED_EDGE ( 'NONE', *, *, #62, .F. ) ;
#97 = APPROVAL_ROLE ( '' ) ;
#98 = APPROVAL_ROLE ( '' ) ;
#99 = CALENDAR_DATE ( 2019, 24, 7 ) ;
#100 = AXIS2_PLACEMENT_3D ( 'NONE', #139, #19, #111 ) ;
#101 = VECTOR ( 'NONE', #228, 1000.000000000000000 ) ;
#102 =( LENGTH_UNIT ( ) NAMED_UNIT ( * ) SI_UNIT ( .MILLI., .METRE. ) );
#103 = EDGE_LOOP ( 'NONE', ( #301, #41, #42, #288 ) ) ;
#104 = APPROVAL_PERSON_ORGANIZATION ( #195, #246, #97 ) ;
#105 = VECTOR ( 'NONE', #108, 1000.000000000000000 ) ;
#106 = VERTEX_POINT ( 'NONE', #259 ) ;
#107 = EDGE_CURVE ( 'NONE', #106, #304, #226, .T. ) ;
#108 = DIRECTION ( 'NONE',  ( 1.000000000000000000, 0.0000000000000000000, 0.0000000000000000000 ) ) ;
#109 = COORDINATED_UNIVERSAL_TIME_OFFSET ( 8, 0, .AHEAD. ) ;
#110 = ORIENTED_EDGE ( 'NONE', *, *, #175, .T. ) ;
#111 = DIRECTION ( 'NONE',  ( 0.7071067811865541200, -0.7071067811865409100, 0.0000000000000000000 ) ) ;
#112 = PRODUCT_RELATED_PRODUCT_CATEGORY ( 'detail', '', ( #67 ) ) ;
#113 = LOCAL_TIME ( 14, 16, 56.00000000000000000, #59 ) ;
#114 = PLANE ( 'NONE',  #210 ) ;
#115 = PERSON ( 'Î´Ö¸¶¨', 'Î´Ö¸¶¨', 'Î´Ö¸¶¨', ('Î´Ö¸¶¨'), ('Î´Ö¸¶¨'), ('Î´Ö¸¶¨') ) ;
#116 = ORIENTED_EDGE ( 'NONE', *, *, #250, .T. ) ;
#117 = PERSON_AND_ORGANIZATION_ROLE ( 'creator' ) ;
#118 =( GEOMETRIC_REPRESENTATION_CONTEXT ( 3 ) GLOBAL_UNCERTAINTY_ASSIGNED_CONTEXT ( ( #123 ) ) GLOBAL_UNIT_ASSIGNED_CONTEXT ( ( #102, #194, #272 ) ) REPRESENTATION_CONTEXT ( 'NONE', 'WORKASPACE' ) );
#119 = DIRECTION ( 'NONE',  ( 0.0000000000000000000, 0.0000000000000000000, 1.000000000000000000 ) ) ;
#120 = APPROVAL_ROLE ( '' ) ;
#121 = LINE ( 'NONE', #25, #33 ) ;
#122 = VECTOR ( 'NONE', #282, 1000.000000000000000 ) ;
#123 = UNCERTAINTY_MEASURE_WITH_UNIT (LENGTH_MEASURE( 1.000000000000000100E-005 ), #102, 'distance_accuracy_value', 'NONE');
#124 = MECHANICAL_CONTEXT ( 'NONE', #140, 'mechanical' ) ;
#125 = PERSON_AND_ORGANIZATION ( #115, #221 ) ;
#126 = CC_DESIGN_PERSON_AND_ORGANIZATION_ASSIGNMENT ( #232, #149, ( #67 ) ) ;
#127 = APPROVAL_DATE_TIME ( #15, #170 ) ;
#128 = EDGE_LOOP ( 'NONE', ( #72, #183, #50, #243 ) ) ;
#129 = DIRECTION ( 'NONE',  ( -0.0000000000000000000, -0.0000000000000000000, -1.000000000000000000 ) ) ;
#130 = PRODUCT_DEFINITION_SHAPE ( 'NONE', 'NONE',  #134 ) ;
#131 = CC_DESIGN_PERSON_AND_ORGANIZATION_ASSIGNMENT ( #300, #75, ( #277 ) ) ;
#132 = PERSON_AND_ORGANIZATION ( #115, #221 ) ;
#133 = FACE_OUTER_BOUND ( 'NONE', #103, .T. ) ;
#134 = PRODUCT_DEFINITION ( 'Î´Öª', '', #222, #2 ) ;
#135 = CARTESIAN_POINT ( 'NONE',  ( 0.0000000000000000000, 0.0000000000000000000, 0.0000000000000000000 ) ) ;
#136 = DIRECTION ( 'NONE',  ( -0.0000000000000000000, -0.0000000000000000000, -1.000000000000000000 ) ) ;
#137 = CARTESIAN_POINT ( 'NONE',  ( 40.32176690087931800, 24.96105190941717900, 5.000000000000000000 ) ) ;
#138 = DIRECTION ( 'NONE',  ( -0.0000000000000000000, -0.0000000000000000000, -1.000000000000000000 ) ) ;
#139 = CARTESIAN_POINT ( 'NONE',  ( 40.32176690087931800, 24.96105190941717900, 5.000000000000000000 ) ) ;
#140 = APPLICATION_CONTEXT ( 'configuration controlled 3d designs of mechanical parts and assemblies' ) ;
#141 = APPROVAL_STATUS ( 'not_yet_approved' ) ;
#142 = CALENDAR_DATE ( 2019, 24, 7 ) ;
#143 = LINE ( 'NONE', #69, #274 ) ;
#144 = CC_DESIGN_PERSON_AND_ORGANIZATION_ASSIGNMENT ( #275, #214, ( #242 ) ) ;
#145 = AXIS2_PLACEMENT_3D ( 'NONE', #48, #159, #189 ) ;
#146 = CALENDAR_DATE ( 2019, 24, 7 ) ;
#147 = APPROVAL_PERSON_ORGANIZATION ( #66, #170, #11 ) ;
#148 = CC_DESIGN_PERSON_AND_ORGANIZATION_ASSIGNMENT ( #76, #3, ( #222 ) ) ;
#149 = PERSON_AND_ORGANIZATION_ROLE ( 'design_owner' ) ;
#150 = AXIS2_PLACEMENT_3D ( 'NONE', #17, #43, #262 ) ;
#151 = DATE_AND_TIME ( #292, #278 ) ;
#152 = VERTEX_POINT ( 'NONE', #46 ) ;
#153 = AXIS2_PLACEMENT_3D ( 'NONE', #135, #199, #289 ) ;
#154 = DATE_AND_TIME ( #142, #220 ) ;
#155 = ORIENTED_EDGE ( 'NONE', *, *, #281, .F. ) ;
#156 = EDGE_CURVE ( 'NONE', #106, #227, #179, .T. ) ;
#157 = VERTEX_POINT ( 'NONE', #258 ) ;
#158 = PRODUCT_DEFINITION_SHAPE ( 'NONE', 'NONE',  #298 ) ;
#159 = DIRECTION ( 'NONE',  ( 0.0000000000000000000, 1.000000000000000000, 0.0000000000000000000 ) ) ;
#160 = CC_DESIGN_APPROVAL ( #31, ( #251 ) ) ;
#161 = DIRECTION ( 'NONE',  ( 0.0000000000000000000, -0.0000000000000000000, -1.000000000000000000 ) ) ;
#162 = COORDINATED_UNIVERSAL_TIME_OFFSET ( 8, 0, .AHEAD. ) ;
#163 = DIRECTION ( 'NONE',  ( 1.000000000000000000, 0.0000000000000000000, -0.0000000000000000000 ) ) ;
#164 = PLANE ( 'NONE',  #145 ) ;
#165 = CC_DESIGN_DATE_AND_TIME_ASSIGNMENT ( #87, #168, ( #251 ) ) ;
#166 = CALENDAR_DATE ( 2019, 24, 7 ) ;
#167 = ORIENTED_EDGE ( 'NONE', *, *, #8, .T. ) ;
#168 = DATE_TIME_ROLE ( 'classification_date' ) ;
#169 = APPROVAL_ROLE ( '' ) ;
#170 = APPROVAL ( #141, 'Î´Ö¸¶¨' ) ;
#171 = APPROVAL_DATE_TIME ( #151, #84 ) ;
#172 = ADVANCED_FACE ( 'NONE', ( #63 ), #114, .T. ) ;
#173 = LINE ( 'NONE', #254, #105 ) ;
#174 = ADVANCED_FACE ( 'NONE', ( #186 ), #284, .F. ) ;
#175 = EDGE_CURVE ( 'NONE', #304, #157, #143, .T. ) ;
#176 = ORIENTED_EDGE ( 'NONE', *, *, #255, .T. ) ;
#177 = APPLICATION_PROTOCOL_DEFINITION ( 'international standard', 'config_control_design', 1994, #295 ) ;
#178 = COORDINATED_UNIVERSAL_TIME_OFFSET ( 8, 0, .AHEAD. ) ;
#179 = LINE ( 'NONE', #92, #256 ) ;
#180 = ORIENTED_EDGE ( 'NONE', *, *, #255, .F. ) ;
#181 = LINE ( 'NONE', #206, #101 ) ;
#182 = APPROVAL ( #52, 'Î´Ö¸¶¨' ) ;
#183 = ORIENTED_EDGE ( 'NONE', *, *, #175, .F. ) ;
#184 = CC_DESIGN_DATE_AND_TIME_ASSIGNMENT ( #57, #290, ( #134 ) ) ;
#185 = AXIS2_PLACEMENT_3D ( 'NONE', #280, #315, #161 ) ;
#186 = FACE_OUTER_BOUND ( 'NONE', #128, .T. ) ;
#187 = CARTESIAN_POINT ( 'NONE',  ( 40.32176690087931800, 24.96105190941717900, 0.0000000000000000000 ) ) ;
#188 = CARTESIAN_POINT ( 'NONE',  ( 19.22176690087931300, 24.96105190941717900, 5.000000000000000000 ) ) ;
#189 = DIRECTION ( 'NONE',  ( 0.0000000000000000000, -0.0000000000000000000, 1.000000000000000000 ) ) ;
#190 = LINE ( 'NONE', #14, #10 ) ;
#191 = EDGE_CURVE ( 'NONE', #227, #157, #83, .T. ) ;
#192 = DESIGN_CONTEXT ( 'detailed design', #28, 'design' ) ;
#193 = ADVANCED_FACE ( 'NONE', ( #314 ), #89, .F. ) ;
#194 =( NAMED_UNIT ( * ) PLANE_ANGLE_UNIT ( ) SI_UNIT ( $, .RADIAN. ) );
#195 = PERSON_AND_ORGANIZATION ( #115, #221 ) ;
#196 = DATE_TIME_ROLE ( 'creation_date' ) ;
#197 = VECTOR ( 'NONE', #229, 1000.000000000000000 ) ;
#198 = COORDINATED_UNIVERSAL_TIME_OFFSET ( 8, 0, .AHEAD. ) ;
#199 = DIRECTION ( 'NONE',  ( 0.0000000000000000000, 0.0000000000000000000, 1.000000000000000000 ) ) ;
#200 = CC_DESIGN_PERSON_AND_ORGANIZATION_ASSIGNMENT ( #39, #117, ( #222 ) ) ;
#201 = LOCAL_TIME ( 14, 16, 56.00000000000000000, #109 ) ;
#202 = PERSON_AND_ORGANIZATION ( #115, #221 ) ;
#203 = CALENDAR_DATE ( 2019, 24, 7 ) ;
#204 = CLOSED_SHELL ( 'NONE', ( #79, #267, #174, #193, #172, #270 ) ) ;
#205 = COORDINATED_UNIVERSAL_TIME_OFFSET ( 8, 0, .AHEAD. ) ;
#206 = CARTESIAN_POINT ( 'NONE',  ( 24.22176690087930200, 29.96105190941717200, 5.000000000000000000 ) ) ;
#207 = DIRECTION ( 'NONE',  ( 0.7071067811865477900, -0.7071067811865473500, 0.0000000000000000000 ) ) ;
#208 = CC_DESIGN_SECURITY_CLASSIFICATION ( #80, ( #242 ) ) ;
#209 = APPROVAL_PERSON_ORGANIZATION ( #32, #9, #98 ) ;
#210 = AXIS2_PLACEMENT_3D ( 'NONE', #310, #312, #163 ) ;
#211 = VECTOR ( 'NONE', #212, 1000.000000000000000 ) ;
#212 = DIRECTION ( 'NONE',  ( -0.7071067811865541200, 0.7071067811865409100, 0.0000000000000000000 ) ) ;
#213 = CC_DESIGN_DATE_AND_TIME_ASSIGNMENT ( #248, #219, ( #80 ) ) ;
#214 = PERSON_AND_ORGANIZATION_ROLE ( 'creator' ) ;
#215 = CALENDAR_DATE ( 2019, 24, 7 ) ;
#216 = ORIENTED_EDGE ( 'NONE', *, *, #55, .T. ) ;
#217 = PRODUCT_RELATED_PRODUCT_CATEGORY ( 'detail', '', ( #277 ) ) ;
#218 = CARTESIAN_POINT ( 'NONE',  ( 35.32176690087923300, 29.96105190941717200, 5.000000000000000000 ) ) ;
#219 = DATE_TIME_ROLE ( 'classification_date' ) ;
#220 = LOCAL_TIME ( 14, 16, 56.00000000000000000, #205 ) ;
#221 = ORGANIZATION ( 'Î´Ö¸¶¨', 'Î´Ö¸¶¨', '' ) ;
#222 = PRODUCT_DEFINITION_FORMATION_WITH_SPECIFIED_SOURCE ( 'ÈÎºÎ', '', #67, .NOT_KNOWN. ) ;
#223 = PERSON_AND_ORGANIZATION_ROLE ( 'classification_officer' ) ;
#224 = PERSON_AND_ORGANIZATION ( #115, #221 ) ;
#225 = ORIENTED_EDGE ( 'NONE', *, *, #281, .T. ) ;
#226 = LINE ( 'NONE', #137, #122 ) ;
#227 = VERTEX_POINT ( 'NONE', #187 ) ;
#228 = DIRECTION ( 'NONE',  ( -0.0000000000000000000, -0.0000000000000000000, -1.000000000000000000 ) ) ;
#229 = DIRECTION ( 'NONE',  ( -0.7071067811865473500, -0.7071067811865477900, -0.0000000000000000000 ) ) ;
#230 = CARTESIAN_POINT ( 'NONE',  ( 40.32176690087931800, 24.96105190941717900, 0.0000000000000000000 ) ) ;
#231 = CALENDAR_DATE ( 2019, 24, 7 ) ;
#232 = PERSON_AND_ORGANIZATION ( #115, #221 ) ;
#233 = EDGE_LOOP ( 'NONE', ( #116, #96, #180, #167 ) ) ;
#234 = CC_DESIGN_APPROVAL ( #84, ( #222 ) ) ;
#235 = DATE_AND_TIME ( #99, #201 ) ;
#236 = APPLICATION_PROTOCOL_DEFINITION ( 'international standard', 'config_control_design', 1994, #95 ) ;
#237 = VERTEX_POINT ( 'NONE', #18 ) ;
#238 = CARTESIAN_POINT ( 'NONE',  ( 0.0000000000000000000, 0.0000000000000000000, 0.0000000000000000000 ) ) ;
#239 = APPROVAL_STATUS ( 'not_yet_approved' ) ;
#240 = APPROVAL_STATUS ( 'not_yet_approved' ) ;
#241 = PERSON_AND_ORGANIZATION ( #115, #221 ) ;
#242 = PRODUCT_DEFINITION_FORMATION_WITH_SPECIFIED_SOURCE ( 'ÈÎºÎ', '', #277, .NOT_KNOWN. ) ;
#243 = ORIENTED_EDGE ( 'NONE', *, *, #156, .T. ) ;
#244 = CALENDAR_DATE ( 2019, 24, 7 ) ;
#245 = VERTEX_POINT ( 'NONE', #313 ) ;
#246 = APPROVAL ( #239, 'Î´Ö¸¶¨' ) ;
#247 = ADVANCED_BREP_SHAPE_REPRESENTATION ( '367500', ( #73, #153 ), #118 ) ;
#248 = DATE_AND_TIME ( #231, #113 ) ;
#249 = VECTOR ( 'NONE', #93, 1000.000000000000000 ) ;
#250 = EDGE_CURVE ( 'NONE', #152, #245, #121, .T. ) ;
#251 = SECURITY_CLASSIFICATION ( '', '', #261 ) ;
#252 = DIRECTION ( 'NONE',  ( 1.000000000000000000, 0.0000000000000000000, 0.0000000000000000000 ) ) ;
#253 = LINE ( 'NONE', #71, #197 ) ;
#254 = CARTESIAN_POINT ( 'NONE',  ( 19.22176690087931300, 24.96105190941717900, 5.000000000000000000 ) ) ;
#255 = EDGE_CURVE ( 'NONE', #237, #91, #253, .T. ) ;
#256 = VECTOR ( 'NONE', #138, 1000.000000000000000 ) ;
#257 = CARTESIAN_POINT ( 'NONE',  ( 19.22176690087931300, 24.96105190941717900, 5.000000000000000000 ) ) ;
#258 = CARTESIAN_POINT ( 'NONE',  ( 35.32176690087923300, 29.96105190941717200, 0.0000000000000000000 ) ) ;
#259 = CARTESIAN_POINT ( 'NONE',  ( 40.32176690087931800, 24.96105190941717900, 5.000000000000000000 ) ) ;
#260 = PERSON_AND_ORGANIZATION ( #115, #221 ) ;
#261 = SECURITY_CLASSIFICATION_LEVEL ( 'unclassified' ) ;
#262 = DIRECTION ( 'NONE',  ( 1.000000000000000000, 0.0000000000000000000, -0.0000000000000000000 ) ) ;
#263 = APPROVAL_DATE_TIME ( #44, #9 ) ;
#264 = MECHANICAL_CONTEXT ( 'NONE', #295, 'mechanical' ) ;
#265 = LOCAL_TIME ( 14, 16, 56.00000000000000000, #21 ) ;
#266 = EDGE_CURVE ( 'NONE', #157, #152, #303, .T. ) ;
#267 = ADVANCED_FACE ( 'NONE', ( #133 ), #164, .F. ) ;
#268 = LOCAL_TIME ( 14, 16, 56.00000000000000000, #82 ) ;
#269 = CC_DESIGN_APPROVAL ( #170, ( #134 ) ) ;
#270 = ADVANCED_FACE ( 'NONE', ( #40 ), #23, .F. ) ;
#271 = DIRECTION ( 'NONE',  ( 1.000000000000000000, 0.0000000000000000000, 0.0000000000000000000 ) ) ;
#272 =( NAMED_UNIT ( * ) SI_UNIT ( $, .STERADIAN. ) SOLID_ANGLE_UNIT ( ) );
#273 = LOCAL_TIME ( 14, 16, 56.00000000000000000, #178 ) ;
#274 = VECTOR ( 'NONE', #136, 1000.000000000000000 ) ;
#275 = PERSON_AND_ORGANIZATION ( #115, #221 ) ;
#276 = CARTESIAN_POINT ( 'NONE',  ( 19.22176690087931300, 24.96105190941717900, 5.000000000000000000 ) ) ;
#277 = PRODUCT ( '367500', '367500', '', ( #264 ) ) ;
#278 = LOCAL_TIME ( 14, 16, 56.00000000000000000, #293 ) ;
#279 = CC_DESIGN_PERSON_AND_ORGANIZATION_ASSIGNMENT ( #224, #30, ( #251 ) ) ;
#280 = CARTESIAN_POINT ( 'NONE',  ( 24.22176690087930200, 29.96105190941717200, 5.000000000000000000 ) ) ;
#281 = EDGE_CURVE ( 'NONE', #304, #237, #77, .T. ) ;
#282 = DIRECTION ( 'NONE',  ( -0.7071067811865541200, 0.7071067811865409100, 0.0000000000000000000 ) ) ;
#283 = LOCAL_TIME ( 14, 16, 56.00000000000000000, #12 ) ;
#284 = PLANE ( 'NONE',  #100 ) ;
#285 = CC_DESIGN_PERSON_AND_ORGANIZATION_ASSIGNMENT ( #241, #223, ( #80 ) ) ;
#286 = APPLICATION_PROTOCOL_DEFINITION ( 'international standard', 'config_control_design', 1994, #28 ) ;
#287 = DATE_AND_TIME ( #166, #283 ) ;
#288 = ORIENTED_EDGE ( 'NONE', *, *, #62, .T. ) ;
#289 = DIRECTION ( 'NONE',  ( 1.000000000000000000, 0.0000000000000000000, 0.0000000000000000000 ) ) ;
#290 = DATE_TIME_ROLE ( 'creation_date' ) ;
#291 = CC_DESIGN_SECURITY_CLASSIFICATION ( #251, ( #222 ) ) ;
#292 = CALENDAR_DATE ( 2019, 24, 7 ) ;
#293 = COORDINATED_UNIVERSAL_TIME_OFFSET ( 8, 0, .AHEAD. ) ;
#294 = ORIENTED_EDGE ( 'NONE', *, *, #266, .T. ) ;
#295 = APPLICATION_CONTEXT ( 'configuration controlled 3d designs of mechanical parts and assemblies' ) ;
#296 = ORIENTED_EDGE ( 'NONE', *, *, #266, .F. ) ;
#297 = APPROVAL_STATUS ( 'not_yet_approved' ) ;
#298 = PRODUCT_DEFINITION ( 'Î´Öª', '', #242, #192 ) ;
#299 = APPROVAL_PERSON_ORGANIZATION ( #54, #31, #169 ) ;
#300 = PERSON_AND_ORGANIZATION ( #115, #221 ) ;
#301 = ORIENTED_EDGE ( 'NONE', *, *, #35, .T. ) ;
#302 = CC_DESIGN_APPROVAL ( #246, ( #242 ) ) ;
#303 = LINE ( 'NONE', #306, #249 ) ;
#304 = VERTEX_POINT ( 'NONE', #218 ) ;
#305 = PLANE ( 'NONE',  #38 ) ;
#306 = CARTESIAN_POINT ( 'NONE',  ( 24.22176690087930200, 29.96105190941717200, 0.0000000000000000000 ) ) ;
#307 = APPROVAL_DATE_TIME ( #6, #182 ) ;
#308 = LINE ( 'NONE', #276, #81 ) ;
#309 = ORIENTED_EDGE ( 'NONE', *, *, #8, .F. ) ;
#310 = CARTESIAN_POINT ( 'NONE',  ( 0.0000000000000000000, 0.0000000000000000000, 5.000000000000000000 ) ) ;
#311 = CC_DESIGN_DATE_AND_TIME_ASSIGNMENT ( #287, #196, ( #298 ) ) ;
#312 = DIRECTION ( 'NONE',  ( 0.0000000000000000000, -0.0000000000000000000, 1.000000000000000000 ) ) ;
#313 = CARTESIAN_POINT ( 'NONE',  ( 19.22176690087931300, 24.96105190941717900, 0.0000000000000000000 ) ) ;
#314 = FACE_OUTER_BOUND ( 'NONE', #34, .T. ) ;
#315 = DIRECTION ( 'NONE',  ( 0.0000000000000000000, -1.000000000000000000, 0.0000000000000000000 ) ) ;
ENDSEC;
END-ISO-10303-21;
