ISO-10303-21;
HEADER;
FILE_DESCRIPTION (( 'STEP AP203' ),
    '1' );
FILE_NAME ('365504.STEP',
    '2019-07-24T02:12:52',
    ( '' ),
    ( '' ),
    'SwSTEP 2.0',
    'SolidWorks 2016',
    '' );
FILE_SCHEMA (( 'CONFIG_CONTROL_DESIGN' ));
ENDSEC;

DATA;
#1 = DATE_AND_TIME ( #138, #205 ) ;
#2 = LINE ( 'NONE', #240, #49 ) ;
#3 = DATE_AND_TIME ( #94, #187 ) ;
#4 = PRODUCT ( '365504', '365504', '', ( #14 ) ) ;
#5 = AXIS2_PLACEMENT_3D ( 'NONE', #191, #109, #140 ) ;
#6 = PERSON_AND_ORGANIZATION ( #9, #267 ) ;
#7 = LINE ( 'NONE', #104, #68 ) ;
#8 = ADVANCED_BREP_SHAPE_REPRESENTATION ( '365504', ( #309, #5 ), #204 ) ;
#9 = PERSON ( 'Î´Ö¸¶¨', 'Î´Ö¸¶¨', 'Î´Ö¸¶¨', ('Î´Ö¸¶¨'), ('Î´Ö¸¶¨'), ('Î´Ö¸¶¨') ) ;
#10 = CARTESIAN_POINT ( 'NONE',  ( -13.37360589549019500, -26.17860755470161700, 30.00000000000000000 ) ) ;
#11 = PERSON_AND_ORGANIZATION ( #9, #267 ) ;
#12 =( NAMED_UNIT ( * ) SI_UNIT ( $, .STERADIAN. ) SOLID_ANGLE_UNIT ( ) );
#13 = VECTOR ( 'NONE', #34, 1000.000000000000000 ) ;
#14 = MECHANICAL_CONTEXT ( 'NONE', #186, 'mechanical' ) ;
#15 = CC_DESIGN_SECURITY_CLASSIFICATION ( #27, ( #114 ) ) ;
#16 = CARTESIAN_POINT ( 'NONE',  ( -13.37360589549019500, -26.17860755470161700, 30.00000000000000000 ) ) ;
#17 = FACE_OUTER_BOUND ( 'NONE', #147, .T. ) ;
#18 = ORIENTED_EDGE ( 'NONE', *, *, #157, .T. ) ;
#19 = APPLICATION_PROTOCOL_DEFINITION ( 'international standard', 'config_control_design', 1994, #310 ) ;
#20 = CC_DESIGN_PERSON_AND_ORGANIZATION_ASSIGNMENT ( #11, #111, ( #170 ) ) ;
#21 = APPROVAL_STATUS ( 'not_yet_approved' ) ;
#22 = APPROVAL_ROLE ( '' ) ;
#23 = PERSON_AND_ORGANIZATION ( #9, #267 ) ;
#24 = ORIENTED_EDGE ( 'NONE', *, *, #197, .F. ) ;
#25 = LINE ( 'NONE', #106, #346 ) ;
#26 = VERTEX_POINT ( 'NONE', #28 ) ;
#27 = SECURITY_CLASSIFICATION ( '', '', #318 ) ;
#28 = CARTESIAN_POINT ( 'NONE',  ( -25.80096852374292700, -13.75124492644882000, 30.00000000000000000 ) ) ;
#29 = ADVANCED_FACE ( 'NONE', ( #227 ), #233, .F. ) ;
#30 = APPROVAL_PERSON_ORGANIZATION ( #226, #62, #223 ) ;
#31 = EDGE_LOOP ( 'NONE', ( #50, #155, #124, #311, #125 ) ) ;
#32 = PRODUCT_RELATED_PRODUCT_CATEGORY ( 'detail', '', ( #4 ) ) ;
#33 = EDGE_LOOP ( 'NONE', ( #312, #184, #95, #131 ) ) ;
#34 = DIRECTION ( 'NONE',  ( -0.0000000000000000000, -0.0000000000000000000, -1.000000000000000000 ) ) ;
#35 = PERSON_AND_ORGANIZATION ( #9, #267 ) ;
#36 = CALENDAR_DATE ( 2019, 24, 7 ) ;
#37 = LINE ( 'NONE', #165, #319 ) ;
#38 = DIRECTION ( 'NONE',  ( 0.0000000000000000000, 0.0000000000000000000, 1.000000000000000000 ) ) ;
#39 = DIRECTION ( 'NONE',  ( 0.7071067811865456900, -0.7071067811865493500, -0.0000000000000000000 ) ) ;
#40 = VERTEX_POINT ( 'NONE', #10 ) ;
#41 = CARTESIAN_POINT ( 'NONE',  ( -13.37360589549019500, -26.17860755470161700, 30.00000000000000000 ) ) ;
#42 = APPROVAL ( #69, 'Î´Ö¸¶¨' ) ;
#43 = LINE ( 'NONE', #246, #175 ) ;
#44 = PERSON_AND_ORGANIZATION ( #9, #267 ) ;
#45 = PERSON_AND_ORGANIZATION_ROLE ( 'creator' ) ;
#46 = SECURITY_CLASSIFICATION_LEVEL ( 'unclassified' ) ;
#47 = APPROVAL_DATE_TIME ( #214, #77 ) ;
#48 = PRODUCT_DEFINITION ( 'Î´Öª', '', #219, #320 ) ;
#49 = VECTOR ( 'NONE', #79, 1000.000000000000000 ) ;
#50 = ORIENTED_EDGE ( 'NONE', *, *, #331, .T. ) ;
#51 = AXIS2_PLACEMENT_3D ( 'NONE', #270, #271, #136 ) ;
#52 = PERSON_AND_ORGANIZATION ( #9, #267 ) ;
#53 = VECTOR ( 'NONE', #211, 1000.000000000000100 ) ;
#54 = CARTESIAN_POINT ( 'NONE',  ( -25.80096852374292700, -13.75124492644882000, 0.0000000000000000000 ) ) ;
#55 = DIRECTION ( 'NONE',  ( 0.7071067811865456900, -0.7071067811865493500, -0.0000000000000000000 ) ) ;
#56 = PRODUCT ( '365504', '365504', '', ( #96 ) ) ;
#57 = DIRECTION ( 'NONE',  ( 0.0000000000000000000, 1.000000000000000000, 0.0000000000000000000 ) ) ;
#58 = PLANE ( 'NONE',  #316 ) ;
#59 = COORDINATED_UNIVERSAL_TIME_OFFSET ( 8, 0, .AHEAD. ) ;
#60 = ORIENTED_EDGE ( 'NONE', *, *, #174, .T. ) ;
#61 = APPLICATION_CONTEXT ( 'configuration controlled 3d designs of mechanical parts and assemblies' ) ;
#62 = APPROVAL ( #284, 'Î´Ö¸¶¨' ) ;
#63 = DIRECTION ( 'NONE',  ( 0.7071067811865493500, 0.7071067811865456900, -0.0000000000000000000 ) ) ;
#64 = AXIS2_PLACEMENT_3D ( 'NONE', #218, #88, #167 ) ;
#65 = APPROVAL_ROLE ( '' ) ;
#66 = PERSON_AND_ORGANIZATION_ROLE ( 'design_supplier' ) ;
#67 = VECTOR ( 'NONE', #85, 1000.000000000000000 ) ;
#68 = VECTOR ( 'NONE', #57, 1000.000000000000000 ) ;
#69 = APPROVAL_STATUS ( 'not_yet_approved' ) ;
#70 = APPROVAL_DATE_TIME ( #277, #120 ) ;
#71 = APPROVAL_DATE_TIME ( #75, #307 ) ;
#72 = EDGE_CURVE ( 'NONE', #102, #347, #248, .T. ) ;
#73 = VECTOR ( 'NONE', #207, 1000.000000000000100 ) ;
#74 = CARTESIAN_POINT ( 'NONE',  ( 16.62476252515132200, -13.75287650580723800, 30.00000000000000000 ) ) ;
#75 = DATE_AND_TIME ( #224, #128 ) ;
#76 = ORIENTED_EDGE ( 'NONE', *, *, #325, .F. ) ;
#77 = APPROVAL ( #21, 'Î´Ö¸¶¨' ) ;
#78 = FACE_OUTER_BOUND ( 'NONE', #172, .T. ) ;
#79 = DIRECTION ( 'NONE',  ( -1.000000000000000000, -1.156482317317871500E-016, 0.0000000000000000000 ) ) ;
#80 = CARTESIAN_POINT ( 'NONE',  ( -13.37360589549019500, -26.17860755470161700, 0.0000000000000000000 ) ) ;
#81 = AXIS2_PLACEMENT_3D ( 'NONE', #269, #300, #209 ) ;
#82 = DIRECTION ( 'NONE',  ( -1.000000000000000000, -1.156482317317871500E-016, 0.0000000000000000000 ) ) ;
#83 = LOCAL_TIME ( 10, 12, 52.00000000000000000, #159 ) ;
#84 = EDGE_LOOP ( 'NONE', ( #166, #76, #291, #18 ) ) ;
#85 = DIRECTION ( 'NONE',  ( -0.0000000000000000000, -0.0000000000000000000, -1.000000000000000000 ) ) ;
#86 = COORDINATED_UNIVERSAL_TIME_OFFSET ( 8, 0, .AHEAD. ) ;
#87 = APPLICATION_PROTOCOL_DEFINITION ( 'international standard', 'config_control_design', 1994, #61 ) ;
#88 = DIRECTION ( 'NONE',  ( 0.0000000000000000000, 0.0000000000000000000, 1.000000000000000000 ) ) ;
#89 = FACE_OUTER_BOUND ( 'NONE', #31, .T. ) ;
#90 = LINE ( 'NONE', #137, #13 ) ;
#91 = CARTESIAN_POINT ( 'NONE',  ( -13.37523747484867400, 16.24712349419275600, 0.0000000000000000000 ) ) ;
#92 = AXIS2_PLACEMENT_3D ( 'NONE', #41, #63, #247 ) ;
#93 = APPROVAL_STATUS ( 'not_yet_approved' ) ;
#94 = CALENDAR_DATE ( 2019, 24, 7 ) ;
#95 = ORIENTED_EDGE ( 'NONE', *, *, #331, .F. ) ;
#96 = MECHANICAL_CONTEXT ( 'NONE', #310, 'mechanical' ) ;
#97 = CC_DESIGN_DATE_AND_TIME_ASSIGNMENT ( #1, #119, ( #170 ) ) ;
#98 = ORIENTED_EDGE ( 'NONE', *, *, #225, .F. ) ;
#99 = CC_DESIGN_APPROVAL ( #307, ( #170 ) ) ;
#100 = CALENDAR_DATE ( 2019, 24, 7 ) ;
#101 = ORIENTED_EDGE ( 'NONE', *, *, #212, .F. ) ;
#102 = VERTEX_POINT ( 'NONE', #80 ) ;
#103 = CC_DESIGN_DATE_AND_TIME_ASSIGNMENT ( #250, #289, ( #297 ) ) ;
#104 = CARTESIAN_POINT ( 'NONE',  ( 16.62476252515132200, -13.75287650580723800, 30.00000000000000000 ) ) ;
#105 = CC_DESIGN_PERSON_AND_ORGANIZATION_ASSIGNMENT ( #134, #255, ( #297 ) ) ;
#106 = CARTESIAN_POINT ( 'NONE',  ( 16.62476252515132200, -13.75287650580723800, 0.0000000000000000000 ) ) ;
#107 = CALENDAR_DATE ( 2019, 24, 7 ) ;
#108 = DIRECTION ( 'NONE',  ( 0.0000000000000000000, 1.000000000000000000, 0.0000000000000000000 ) ) ;
#109 = DIRECTION ( 'NONE',  ( 0.0000000000000000000, 0.0000000000000000000, 1.000000000000000000 ) ) ;
#110 = APPROVAL_DATE_TIME ( #199, #62 ) ;
#111 = PERSON_AND_ORGANIZATION_ROLE ( 'creator' ) ;
#112 = LINE ( 'NONE', #301, #73 ) ;
#113 = ORIENTED_EDGE ( 'NONE', *, *, #127, .F. ) ;
#114 = PRODUCT_DEFINITION_FORMATION_WITH_SPECIFIED_SOURCE ( 'ÈÎºÎ', '', #4, .NOT_KNOWN. ) ;
#115 = CARTESIAN_POINT ( 'NONE',  ( 16.62476252515132200, -13.75287650580723800, 0.0000000000000000000 ) ) ;
#116 = PLANE ( 'NONE',  #92 ) ;
#117 = LINE ( 'NONE', #143, #330 ) ;
#118 = APPROVAL ( #322, 'Î´Ö¸¶¨' ) ;
#119 = DATE_TIME_ROLE ( 'creation_date' ) ;
#120 = APPROVAL ( #93, 'Î´Ö¸¶¨' ) ;
#121 = DATE_TIME_ROLE ( 'creation_date' ) ;
#122 = CALENDAR_DATE ( 2019, 24, 7 ) ;
#123 = PRODUCT_DEFINITION_SHAPE ( 'NONE', 'NONE',  #170 ) ;
#124 = ORIENTED_EDGE ( 'NONE', *, *, #212, .T. ) ;
#125 = ORIENTED_EDGE ( 'NONE', *, *, #135, .T. ) ;
#126 = UNCERTAINTY_MEASURE_WITH_UNIT (LENGTH_MEASURE( 1.000000000000000100E-005 ), #251, 'distance_accuracy_value', 'NONE');
#127 = EDGE_CURVE ( 'NONE', #26, #215, #336, .T. ) ;
#128 = LOCAL_TIME ( 10, 12, 52.00000000000000000, #193 ) ;
#129 = ADVANCED_FACE ( 'NONE', ( #161 ), #213, .F. ) ;
#130 = APPROVAL_PERSON_ORGANIZATION ( #235, #42, #342 ) ;
#131 = ORIENTED_EDGE ( 'NONE', *, *, #338, .T. ) ;
#132 = CC_DESIGN_APPROVAL ( #62, ( #48 ) ) ;
#133 = CARTESIAN_POINT ( 'NONE',  ( 16.62476252515132200, 16.24712349419276000, 30.00000000000000000 ) ) ;
#134 = PERSON_AND_ORGANIZATION ( #9, #267 ) ;
#135 = EDGE_CURVE ( 'NONE', #26, #40, #230, .T. ) ;
#136 = DIRECTION ( 'NONE',  ( -0.9238795325112878500, -0.3826834323650871200, 0.0000000000000000000 ) ) ;
#137 = CARTESIAN_POINT ( 'NONE',  ( 16.62476252515132200, -13.75287650580723800, 30.00000000000000000 ) ) ;
#138 = CALENDAR_DATE ( 2019, 24, 7 ) ;
#139 = ORIENTED_EDGE ( 'NONE', *, *, #338, .F. ) ;
#140 = DIRECTION ( 'NONE',  ( 1.000000000000000000, 0.0000000000000000000, 0.0000000000000000000 ) ) ;
#141 = LOCAL_TIME ( 10, 12, 52.00000000000000000, #86 ) ;
#142 = COORDINATED_UNIVERSAL_TIME_OFFSET ( 8, 0, .AHEAD. ) ;
#143 = CARTESIAN_POINT ( 'NONE',  ( -13.37360589549019500, -26.17860755470161700, 30.00000000000000000 ) ) ;
#144 = APPROVAL_STATUS ( 'not_yet_approved' ) ;
#145 = APPROVAL_PERSON_ORGANIZATION ( #208, #307, #276 ) ;
#146 = ORIENTED_EDGE ( 'NONE', *, *, #232, .T. ) ;
#147 = EDGE_LOOP ( 'NONE', ( #201, #237, #101, #303 ) ) ;
#148 = EDGE_CURVE ( 'NONE', #347, #196, #25, .T. ) ;
#149 = DIRECTION ( 'NONE',  ( 0.9238795325112878500, 0.3826834323650871200, 0.0000000000000000000 ) ) ;
#150 = PERSON_AND_ORGANIZATION_ROLE ( 'creator' ) ;
#151 = DATE_TIME_ROLE ( 'classification_date' ) ;
#152 = PERSON_AND_ORGANIZATION ( #9, #267 ) ;
#153 = CALENDAR_DATE ( 2019, 24, 7 ) ;
#154 = CC_DESIGN_PERSON_AND_ORGANIZATION_ASSIGNMENT ( #23, #171, ( #48 ) ) ;
#155 = ORIENTED_EDGE ( 'NONE', *, *, #177, .T. ) ;
#156 = ORIENTED_EDGE ( 'NONE', *, *, #197, .T. ) ;
#157 = EDGE_CURVE ( 'NONE', #258, #347, #90, .T. ) ;
#158 = PRODUCT_DEFINITION_SHAPE ( 'NONE', 'NONE',  #48 ) ;
#159 = COORDINATED_UNIVERSAL_TIME_OFFSET ( 8, 0, .AHEAD. ) ;
#160 = DIRECTION ( 'NONE',  ( 0.0000000000000000000, 0.0000000000000000000, 1.000000000000000000 ) ) ;
#161 = FACE_OUTER_BOUND ( 'NONE', #33, .T. ) ;
#162 = COORDINATED_UNIVERSAL_TIME_OFFSET ( 8, 0, .AHEAD. ) ;
#163 = ORIENTED_EDGE ( 'NONE', *, *, #148, .F. ) ;
#164 = PLANE ( 'NONE',  #268 ) ;
#165 = CARTESIAN_POINT ( 'NONE',  ( -13.37523747484867400, 16.24712349419275600, 30.00000000000000000 ) ) ;
#166 = ORIENTED_EDGE ( 'NONE', *, *, #148, .T. ) ;
#167 = DIRECTION ( 'NONE',  ( 1.000000000000000000, 0.0000000000000000000, 0.0000000000000000000 ) ) ;
#168 = APPROVAL_PERSON_ORGANIZATION ( #44, #77, #22 ) ;
#169 = PERSON_AND_ORGANIZATION ( #9, #267 ) ;
#170 = PRODUCT_DEFINITION ( 'Î´Öª', '', #114, #344 ) ;
#171 = PERSON_AND_ORGANIZATION_ROLE ( 'creator' ) ;
#172 = EDGE_LOOP ( 'NONE', ( #210, #275, #24, #98, #163 ) ) ;
#173 = ADVANCED_FACE ( 'NONE', ( #17 ), #304, .F. ) ;
#174 = EDGE_CURVE ( 'NONE', #328, #341, #180, .T. ) ;
#175 = VECTOR ( 'NONE', #273, 1000.000000000000000 ) ;
#176 = LOCAL_TIME ( 10, 12, 52.00000000000000000, #332 ) ;
#177 = EDGE_CURVE ( 'NONE', #258, #222, #7, .T. ) ;
#178 = CARTESIAN_POINT ( 'NONE',  ( -25.80096852374292700, -13.75124492644882000, 30.00000000000000000 ) ) ;
#179 = PERSON_AND_ORGANIZATION ( #9, #267 ) ;
#180 = LINE ( 'NONE', #241, #286 ) ;
#181 = ORIENTED_EDGE ( 'NONE', *, *, #127, .T. ) ;
#182 = CC_DESIGN_PERSON_AND_ORGANIZATION_ASSIGNMENT ( #264, #45, ( #114 ) ) ;
#183 = CARTESIAN_POINT ( 'NONE',  ( -13.37360589549019500, -26.17860755470161700, 30.00000000000000000 ) ) ;
#184 = ORIENTED_EDGE ( 'NONE', *, *, #157, .F. ) ;
#185 = CC_DESIGN_PERSON_AND_ORGANIZATION_ASSIGNMENT ( #179, #283, ( #27 ) ) ;
#186 = APPLICATION_CONTEXT ( 'configuration controlled 3d designs of mechanical parts and assemblies' ) ;
#187 = LOCAL_TIME ( 10, 12, 52.00000000000000000, #59 ) ;
#188 = CARTESIAN_POINT ( 'NONE',  ( 0.0000000000000000000, 0.0000000000000000000, 30.00000000000000000 ) ) ;
#189 = CC_DESIGN_SECURITY_CLASSIFICATION ( #297, ( #219 ) ) ;
#190 = VECTOR ( 'NONE', #55, 1000.000000000000100 ) ;
#191 = CARTESIAN_POINT ( 'NONE',  ( 0.0000000000000000000, 0.0000000000000000000, 0.0000000000000000000 ) ) ;
#192 = CARTESIAN_POINT ( 'NONE',  ( -13.37523747484867400, 16.24712349419275600, 30.00000000000000000 ) ) ;
#193 = COORDINATED_UNIVERSAL_TIME_OFFSET ( 8, 0, .AHEAD. ) ;
#194 = AXIS2_PLACEMENT_3D ( 'NONE', #74, #262, #160 ) ;
#195 = PERSON_AND_ORGANIZATION_ROLE ( 'design_supplier' ) ;
#196 = VERTEX_POINT ( 'NONE', #333 ) ;
#197 = EDGE_CURVE ( 'NONE', #341, #215, #112, .T. ) ;
#198 = APPLICATION_CONTEXT ( 'configuration controlled 3d designs of mechanical parts and assemblies' ) ;
#199 = DATE_AND_TIME ( #36, #83 ) ;
#200 = VECTOR ( 'NONE', #82, 1000.000000000000000 ) ;
#201 = ORIENTED_EDGE ( 'NONE', *, *, #225, .T. ) ;
#202 = CALENDAR_DATE ( 2019, 24, 7 ) ;
#203 = CC_DESIGN_DATE_AND_TIME_ASSIGNMENT ( #317, #121, ( #48 ) ) ;
#204 =( GEOMETRIC_REPRESENTATION_CONTEXT ( 3 ) GLOBAL_UNCERTAINTY_ASSIGNED_CONTEXT ( ( #126 ) ) GLOBAL_UNIT_ASSIGNED_CONTEXT ( ( #251, #280, #12 ) ) REPRESENTATION_CONTEXT ( 'NONE', 'WORKASPACE' ) );
#205 = LOCAL_TIME ( 10, 12, 52.00000000000000000, #260 ) ;
#206 = FACE_OUTER_BOUND ( 'NONE', #221, .T. ) ;
#207 = DIRECTION ( 'NONE',  ( -0.3826834323650831200, -0.9238795325112894000, 0.0000000000000000000 ) ) ;
#208 = PERSON_AND_ORGANIZATION ( #9, #267 ) ;
#209 = DIRECTION ( 'NONE',  ( 1.000000000000000000, 1.156482317317871500E-016, 0.0000000000000000000 ) ) ;
#210 = ORIENTED_EDGE ( 'NONE', *, *, #72, .F. ) ;
#211 = DIRECTION ( 'NONE',  ( 0.9238795325112878500, 0.3826834323650871200, 0.0000000000000000000 ) ) ;
#212 = EDGE_CURVE ( 'NONE', #222, #328, #2, .T. ) ;
#213 = PLANE ( 'NONE',  #51 ) ;
#214 = DATE_AND_TIME ( #100, #326 ) ;
#215 = VERTEX_POINT ( 'NONE', #54 ) ;
#216 = SHAPE_DEFINITION_REPRESENTATION ( #158, #8 ) ;
#217 = PERSON_AND_ORGANIZATION_ROLE ( 'design_owner' ) ;
#218 = CARTESIAN_POINT ( 'NONE',  ( 0.0000000000000000000, 0.0000000000000000000, 0.0000000000000000000 ) ) ;
#219 = PRODUCT_DEFINITION_FORMATION_WITH_SPECIFIED_SOURCE ( 'ÈÎºÎ', '', #56, .NOT_KNOWN. ) ;
#220 = PLANE ( 'NONE',  #253 ) ;
#221 = EDGE_LOOP ( 'NONE', ( #146, #139, #282, #181 ) ) ;
#222 = VERTEX_POINT ( 'NONE', #133 ) ;
#223 = APPROVAL_ROLE ( '' ) ;
#224 = CALENDAR_DATE ( 2019, 24, 7 ) ;
#225 = EDGE_CURVE ( 'NONE', #196, #341, #327, .T. ) ;
#226 = PERSON_AND_ORGANIZATION ( #9, #267 ) ;
#227 = FACE_OUTER_BOUND ( 'NONE', #84, .T. ) ;
#228 = PRODUCT_RELATED_PRODUCT_CATEGORY ( 'detail', '', ( #56 ) ) ;
#229 = LINE ( 'NONE', #16, #67 ) ;
#230 = LINE ( 'NONE', #183, #190 ) ;
#231 = ADVANCED_FACE ( 'NONE', ( #206 ), #116, .F. ) ;
#232 = EDGE_CURVE ( 'NONE', #215, #102, #290, .T. ) ;
#233 = PLANE ( 'NONE',  #194 ) ;
#234 = ADVANCED_FACE ( 'NONE', ( #274 ), #220, .F. ) ;
#235 = PERSON_AND_ORGANIZATION ( #9, #267 ) ;
#236 = ADVANCED_FACE ( 'NONE', ( #78 ), #164, .F. ) ;
#237 = ORIENTED_EDGE ( 'NONE', *, *, #174, .F. ) ;
#238 = CC_DESIGN_APPROVAL ( #42, ( #219 ) ) ;
#239 = CARTESIAN_POINT ( 'NONE',  ( 16.62476252515132200, 16.24712349419276000, 0.0000000000000000000 ) ) ;
#240 = CARTESIAN_POINT ( 'NONE',  ( 16.62476252515132200, 16.24712349419276000, 30.00000000000000000 ) ) ;
#241 = CARTESIAN_POINT ( 'NONE',  ( -13.37523747484867400, 16.24712349419275600, 30.00000000000000000 ) ) ;
#242 = LOCAL_TIME ( 10, 12, 52.00000000000000000, #345 ) ;
#243 = VECTOR ( 'NONE', #39, 1000.000000000000100 ) ;
#244 = CC_DESIGN_PERSON_AND_ORGANIZATION_ASSIGNMENT ( #152, #217, ( #4 ) ) ;
#245 = CARTESIAN_POINT ( 'NONE',  ( -13.37360589549019500, -26.17860755470161700, 0.0000000000000000000 ) ) ;
#246 = CARTESIAN_POINT ( 'NONE',  ( 16.62476252515132200, 16.24712349419276000, 30.00000000000000000 ) ) ;
#247 = DIRECTION ( 'NONE',  ( -0.7071067811865456900, 0.7071067811865493500, 0.0000000000000000000 ) ) ;
#248 = LINE ( 'NONE', #245, #53 ) ;
#249 = CARTESIAN_POINT ( 'NONE',  ( 16.62476252515132200, -13.75287650580723800, 30.00000000000000000 ) ) ;
#250 = DATE_AND_TIME ( #202, #141 ) ;
#251 =( LENGTH_UNIT ( ) NAMED_UNIT ( * ) SI_UNIT ( .MILLI., .METRE. ) );
#252 = DIRECTION ( 'NONE',  ( 0.9238795325112895100, -0.3826834323650832300, 0.0000000000000000000 ) ) ;
#253 = AXIS2_PLACEMENT_3D ( 'NONE', #192, #252, #337 ) ;
#254 = CALENDAR_DATE ( 2019, 24, 7 ) ;
#255 = PERSON_AND_ORGANIZATION_ROLE ( 'classification_officer' ) ;
#256 = APPLICATION_PROTOCOL_DEFINITION ( 'international standard', 'config_control_design', 1994, #198 ) ;
#257 = LOCAL_TIME ( 10, 12, 52.00000000000000000, #281 ) ;
#258 = VERTEX_POINT ( 'NONE', #249 ) ;
#259 = CC_DESIGN_PERSON_AND_ORGANIZATION_ASSIGNMENT ( #169, #150, ( #219 ) ) ;
#260 = COORDINATED_UNIVERSAL_TIME_OFFSET ( 8, 0, .AHEAD. ) ;
#261 = ORIENTED_EDGE ( 'NONE', *, *, #292, .F. ) ;
#262 = DIRECTION ( 'NONE',  ( -1.000000000000000000, 0.0000000000000000000, 0.0000000000000000000 ) ) ;
#263 = CC_DESIGN_APPROVAL ( #118, ( #114 ) ) ;
#264 = PERSON_AND_ORGANIZATION ( #9, #267 ) ;
#265 = APPROVAL_DATE_TIME ( #3, #42 ) ;
#266 = PERSON_AND_ORGANIZATION ( #9, #267 ) ;
#267 = ORGANIZATION ( 'Î´Ö¸¶¨', 'Î´Ö¸¶¨', '' ) ;
#268 = AXIS2_PLACEMENT_3D ( 'NONE', #315, #339, #308 ) ;
#269 = CARTESIAN_POINT ( 'NONE',  ( 16.62476252515132200, 16.24712349419276000, 30.00000000000000000 ) ) ;
#270 = CARTESIAN_POINT ( 'NONE',  ( -13.37360589549019500, -26.17860755470161700, 30.00000000000000000 ) ) ;
#271 = DIRECTION ( 'NONE',  ( -0.3826834323650871200, 0.9238795325112878500, 0.0000000000000000000 ) ) ;
#272 = APPROVAL_PERSON_ORGANIZATION ( #6, #118, #65 ) ;
#273 = DIRECTION ( 'NONE',  ( -0.0000000000000000000, -0.0000000000000000000, -1.000000000000000000 ) ) ;
#274 = FACE_OUTER_BOUND ( 'NONE', #298, .T. ) ;
#275 = ORIENTED_EDGE ( 'NONE', *, *, #232, .F. ) ;
#276 = APPROVAL_ROLE ( '' ) ;
#277 = DATE_AND_TIME ( #153, #296 ) ;
#278 = DIRECTION ( 'NONE',  ( -0.3826834323650831200, -0.9238795325112894000, 0.0000000000000000000 ) ) ;
#279 = CC_DESIGN_PERSON_AND_ORGANIZATION_ASSIGNMENT ( #314, #195, ( #219 ) ) ;
#280 =( NAMED_UNIT ( * ) PLANE_ANGLE_UNIT ( ) SI_UNIT ( $, .RADIAN. ) );
#281 = COORDINATED_UNIVERSAL_TIME_OFFSET ( 8, 0, .AHEAD. ) ;
#282 = ORIENTED_EDGE ( 'NONE', *, *, #135, .F. ) ;
#283 = PERSON_AND_ORGANIZATION_ROLE ( 'classification_officer' ) ;
#284 = APPROVAL_STATUS ( 'not_yet_approved' ) ;
#285 = CC_DESIGN_APPROVAL ( #77, ( #27 ) ) ;
#286 = VECTOR ( 'NONE', #299, 1000.000000000000000 ) ;
#287 = PERSON_AND_ORGANIZATION_ROLE ( 'design_owner' ) ;
#288 = CC_DESIGN_PERSON_AND_ORGANIZATION_ASSIGNMENT ( #35, #287, ( #56 ) ) ;
#289 = DATE_TIME_ROLE ( 'classification_date' ) ;
#290 = LINE ( 'NONE', #313, #243 ) ;
#291 = ORIENTED_EDGE ( 'NONE', *, *, #177, .F. ) ;
#292 = EDGE_CURVE ( 'NONE', #328, #26, #37, .T. ) ;
#293 = DATE_AND_TIME ( #254, #242 ) ;
#294 = CC_DESIGN_APPROVAL ( #120, ( #297 ) ) ;
#295 = VECTOR ( 'NONE', #329, 1000.000000000000000 ) ;
#296 = LOCAL_TIME ( 10, 12, 52.00000000000000000, #142 ) ;
#297 = SECURITY_CLASSIFICATION ( '', '', #46 ) ;
#298 = EDGE_LOOP ( 'NONE', ( #156, #113, #261, #60 ) ) ;
#299 = DIRECTION ( 'NONE',  ( -0.0000000000000000000, -0.0000000000000000000, -1.000000000000000000 ) ) ;
#300 = DIRECTION ( 'NONE',  ( 1.156482317317871500E-016, -1.000000000000000000, 0.0000000000000000000 ) ) ;
#301 = CARTESIAN_POINT ( 'NONE',  ( -13.37523747484867400, 16.24712349419275600, 0.0000000000000000000 ) ) ;
#302 = APPROVAL_DATE_TIME ( #335, #118 ) ;
#303 = ORIENTED_EDGE ( 'NONE', *, *, #325, .T. ) ;
#304 = PLANE ( 'NONE',  #81 ) ;
#305 = APPROVAL_PERSON_ORGANIZATION ( #266, #120, #321 ) ;
#306 = CARTESIAN_POINT ( 'NONE',  ( -13.37523747484867400, 16.24712349419275600, 30.00000000000000000 ) ) ;
#307 = APPROVAL ( #144, 'Î´Ö¸¶¨' ) ;
#308 = DIRECTION ( 'NONE',  ( 1.000000000000000000, 0.0000000000000000000, -0.0000000000000000000 ) ) ;
#309 = MANIFOLD_SOLID_BREP ( 'Í¹Ì¨-À­Éì1', #324 ) ;
#310 = APPLICATION_CONTEXT ( 'configuration controlled 3d designs of mechanical parts and assemblies' ) ;
#311 = ORIENTED_EDGE ( 'NONE', *, *, #292, .T. ) ;
#312 = ORIENTED_EDGE ( 'NONE', *, *, #72, .T. ) ;
#313 = CARTESIAN_POINT ( 'NONE',  ( -13.37360589549019500, -26.17860755470161700, 0.0000000000000000000 ) ) ;
#314 = PERSON_AND_ORGANIZATION ( #9, #267 ) ;
#315 = CARTESIAN_POINT ( 'NONE',  ( 0.0000000000000000000, 0.0000000000000000000, 0.0000000000000000000 ) ) ;
#316 = AXIS2_PLACEMENT_3D ( 'NONE', #188, #38, #340 ) ;
#317 = DATE_AND_TIME ( #107, #176 ) ;
#318 = SECURITY_CLASSIFICATION_LEVEL ( 'unclassified' ) ;
#319 = VECTOR ( 'NONE', #278, 1000.000000000000100 ) ;
#320 = DESIGN_CONTEXT ( 'detailed design', #198, 'design' ) ;
#321 = APPROVAL_ROLE ( '' ) ;
#322 = APPROVAL_STATUS ( 'not_yet_approved' ) ;
#323 = ADVANCED_FACE ( 'NONE', ( #89 ), #58, .T. ) ;
#324 = CLOSED_SHELL ( 'NONE', ( #129, #29, #173, #234, #231, #323, #236 ) ) ;
#325 = EDGE_CURVE ( 'NONE', #222, #196, #43, .T. ) ;
#326 = LOCAL_TIME ( 10, 12, 52.00000000000000000, #162 ) ;
#327 = LINE ( 'NONE', #239, #200 ) ;
#328 = VERTEX_POINT ( 'NONE', #306 ) ;
#329 = DIRECTION ( 'NONE',  ( -0.0000000000000000000, -0.0000000000000000000, -1.000000000000000000 ) ) ;
#330 = VECTOR ( 'NONE', #149, 1000.000000000000100 ) ;
#331 = EDGE_CURVE ( 'NONE', #40, #258, #117, .T. ) ;
#332 = COORDINATED_UNIVERSAL_TIME_OFFSET ( 8, 0, .AHEAD. ) ;
#333 = CARTESIAN_POINT ( 'NONE',  ( 16.62476252515132200, 16.24712349419276000, 0.0000000000000000000 ) ) ;
#334 = APPLICATION_PROTOCOL_DEFINITION ( 'international standard', 'config_control_design', 1994, #186 ) ;
#335 = DATE_AND_TIME ( #122, #257 ) ;
#336 = LINE ( 'NONE', #178, #295 ) ;
#337 = DIRECTION ( 'NONE',  ( 0.3826834323650831800, 0.9238795325112894000, 0.0000000000000000000 ) ) ;
#338 = EDGE_CURVE ( 'NONE', #40, #102, #229, .T. ) ;
#339 = DIRECTION ( 'NONE',  ( 0.0000000000000000000, 0.0000000000000000000, 1.000000000000000000 ) ) ;
#340 = DIRECTION ( 'NONE',  ( 1.000000000000000000, 0.0000000000000000000, -0.0000000000000000000 ) ) ;
#341 = VERTEX_POINT ( 'NONE', #91 ) ;
#342 = APPROVAL_ROLE ( '' ) ;
#343 = CC_DESIGN_PERSON_AND_ORGANIZATION_ASSIGNMENT ( #52, #66, ( #114 ) ) ;
#344 = DESIGN_CONTEXT ( 'detailed design', #61, 'design' ) ;
#345 = COORDINATED_UNIVERSAL_TIME_OFFSET ( 8, 0, .AHEAD. ) ;
#346 = VECTOR ( 'NONE', #108, 1000.000000000000000 ) ;
#347 = VERTEX_POINT ( 'NONE', #115 ) ;
#348 = CC_DESIGN_DATE_AND_TIME_ASSIGNMENT ( #293, #151, ( #27 ) ) ;
ENDSEC;
END-ISO-10303-21;
