ISO-10303-21;
HEADER;
FILE_DESCRIPTION (( 'STEP AP203' ),
    '1' );
FILE_NAME ('355506.STEP',
    '2019-07-22T06:04:00',
    ( '' ),
    ( '' ),
    'SwSTEP 2.0',
    'SolidWorks 2016',
    '' );
FILE_SCHEMA (( 'CONFIG_CONTROL_DESIGN' ));
ENDSEC;

DATA;
#1 = APPLICATION_PROTOCOL_DEFINITION ( 'international standard', 'config_control_design', 1994, #46 ) ;
#2 = CC_DESIGN_APPROVAL ( #152, ( #134 ) ) ;
#3 = LINE ( 'NONE', #206, #250 ) ;
#4 = DIRECTION ( 'NONE',  ( 1.000000000000000000, 0.0000000000000000000, 0.0000000000000000000 ) ) ;
#5 = DIRECTION ( 'NONE',  ( 1.000000000000000000, 0.0000000000000000000, 0.0000000000000000000 ) ) ;
#6 = PERSON ( 'Î´Ö¸¶¨', 'Î´Ö¸¶¨', 'Î´Ö¸¶¨', ('Î´Ö¸¶¨'), ('Î´Ö¸¶¨'), ('Î´Ö¸¶¨') ) ;
#7 = VERTEX_POINT ( 'NONE', #220 ) ;
#8 = APPROVAL_STATUS ( 'not_yet_approved' ) ;
#9 = COORDINATED_UNIVERSAL_TIME_OFFSET ( 8, 0, .AHEAD. ) ;
#10 = PERSON_AND_ORGANIZATION_ROLE ( 'creator' ) ;
#11 = CC_DESIGN_PERSON_AND_ORGANIZATION_ASSIGNMENT ( #181, #92, ( #134 ) ) ;
#12 = LINE ( 'NONE', #136, #29 ) ;
#13 = PRODUCT_DEFINITION_SHAPE ( 'NONE', 'NONE',  #134 ) ;
#14 = DIRECTION ( 'NONE',  ( -1.000000000000000000, 0.0000000000000000000, 0.0000000000000000000 ) ) ;
#15 = VERTEX_POINT ( 'NONE', #118 ) ;
#16 = DIRECTION ( 'NONE',  ( 0.0000000000000000000, 0.0000000000000000000, -1.000000000000000000 ) ) ;
#17 = CC_DESIGN_APPROVAL ( #82, ( #269 ) ) ;
#18 = CC_DESIGN_PERSON_AND_ORGANIZATION_ASSIGNMENT ( #94, #197, ( #180 ) ) ;
#19 = APPROVAL_DATE_TIME ( #190, #194 ) ;
#20 = ADVANCED_FACE ( 'NONE', ( #225 ), #185, .T. ) ;
#21 = CALENDAR_DATE ( 2019, 22, 7 ) ;
#22 = APPROVAL_ROLE ( '' ) ;
#23 = LINE ( 'NONE', #35, #128 ) ;
#24 = AXIS2_PLACEMENT_3D ( 'NONE', #34, #53, #73 ) ;
#25 = APPROVAL_STATUS ( 'not_yet_approved' ) ;
#26 =( LENGTH_UNIT ( ) NAMED_UNIT ( * ) SI_UNIT ( .MILLI., .METRE. ) );
#27 = APPLICATION_PROTOCOL_DEFINITION ( 'international standard', 'config_control_design', 1994, #239 ) ;
#28 = PRODUCT_DEFINITION_FORMATION_WITH_SPECIFIED_SOURCE ( 'ÈÎºÎ', '', #180, .NOT_KNOWN. ) ;
#29 = VECTOR ( 'NONE', #95, 1000.000000000000000 ) ;
#30 = AXIS2_PLACEMENT_3D ( 'NONE', #273, #14, #75 ) ;
#31 = APPROVAL_STATUS ( 'not_yet_approved' ) ;
#32 = PRODUCT_DEFINITION_SHAPE ( 'NONE', 'NONE',  #101 ) ;
#33 = CALENDAR_DATE ( 2019, 22, 7 ) ;
#34 = CARTESIAN_POINT ( 'NONE',  ( 0.0000000000000000000, 0.0000000000000000000, 0.0000000000000000000 ) ) ;
#35 = CARTESIAN_POINT ( 'NONE',  ( 52.41421911327171300, 39.83372107209180500, 15.00000000000000000 ) ) ;
#36 = DIRECTION ( 'NONE',  ( -0.7071067811865474600, -0.7071067811865474600, -0.0000000000000000000 ) ) ;
#37 = AXIS2_PLACEMENT_3D ( 'NONE', #109, #240, #262 ) ;
#38 = DIRECTION ( 'NONE',  ( -1.000000000000000000, 0.0000000000000000000, -0.0000000000000000000 ) ) ;
#39 = APPROVAL_PERSON_ORGANIZATION ( #235, #194, #65 ) ;
#40 = CC_DESIGN_PERSON_AND_ORGANIZATION_ASSIGNMENT ( #102, #179, ( #28 ) ) ;
#41 = EDGE_CURVE ( 'NONE', #7, #77, #23, .T. ) ;
#42 = DATE_AND_TIME ( #164, #212 ) ;
#43 = APPROVAL ( #8, 'Î´Ö¸¶¨' ) ;
#44 = ORIENTED_EDGE ( 'NONE', *, *, #200, .F. ) ;
#45 = PERSON_AND_ORGANIZATION ( #6, #114 ) ;
#46 = APPLICATION_CONTEXT ( 'configuration controlled 3d designs of mechanical parts and assemblies' ) ;
#47 = APPROVAL_ROLE ( '' ) ;
#48 = CALENDAR_DATE ( 2019, 22, 7 ) ;
#49 = LOCAL_TIME ( 14, 4, 0.0000000000000000000, #254 ) ;
#50 = DIRECTION ( 'NONE',  ( 1.000000000000000000, -0.0000000000000000000, -0.0000000000000000000 ) ) ;
#51 = APPROVAL_DATE_TIME ( #207, #82 ) ;
#52 = AXIS2_PLACEMENT_3D ( 'NONE', #61, #145, #4 ) ;
#53 = DIRECTION ( 'NONE',  ( 0.0000000000000000000, 0.0000000000000000000, -1.000000000000000000 ) ) ;
#54 = CC_DESIGN_PERSON_AND_ORGANIZATION_ASSIGNMENT ( #183, #246, ( #269 ) ) ;
#55 = SECURITY_CLASSIFICATION ( '', '', #192 ) ;
#56 = VECTOR ( 'NONE', #142, 1000.000000000000000 ) ;
#57 = CLOSED_SHELL ( 'NONE', ( #78, #104, #274, #229, #20 ) ) ;
#58 = CC_DESIGN_APPROVAL ( #43, ( #55 ) ) ;
#59 = DATE_AND_TIME ( #279, #143 ) ;
#60 = ORIENTED_EDGE ( 'NONE', *, *, #163, .T. ) ;
#61 = CARTESIAN_POINT ( 'NONE',  ( 0.0000000000000000000, 0.0000000000000000000, 0.0000000000000000000 ) ) ;
#62 = DIRECTION ( 'NONE',  ( 0.0000000000000000000, 1.000000000000000000, 0.0000000000000000000 ) ) ;
#63 = AXIS2_PLACEMENT_3D ( 'NONE', #213, #264, #5 ) ;
#64 = EDGE_LOOP ( 'NONE', ( #176, #125, #245, #71 ) ) ;
#65 = APPROVAL_ROLE ( '' ) ;
#66 =( NAMED_UNIT ( * ) PLANE_ANGLE_UNIT ( ) SI_UNIT ( $, .RADIAN. ) );
#67 = MECHANICAL_CONTEXT ( 'NONE', #80, 'mechanical' ) ;
#68 = CC_DESIGN_PERSON_AND_ORGANIZATION_ASSIGNMENT ( #88, #260, ( #87 ) ) ;
#69 = CC_DESIGN_SECURITY_CLASSIFICATION ( #55, ( #280 ) ) ;
#70 = ADVANCED_BREP_SHAPE_REPRESENTATION ( '355506', ( #120, #52 ), #133 ) ;
#71 = ORIENTED_EDGE ( 'NONE', *, *, #252, .T. ) ;
#72 = CC_DESIGN_DATE_AND_TIME_ASSIGNMENT ( #129, #153, ( #269 ) ) ;
#73 = DIRECTION ( 'NONE',  ( -1.000000000000000000, 0.0000000000000000000, -0.0000000000000000000 ) ) ;
#74 = VECTOR ( 'NONE', #36, 1000.000000000000100 ) ;
#75 = DIRECTION ( 'NONE',  ( 0.0000000000000000000, 0.0000000000000000000, 1.000000000000000000 ) ) ;
#76 = CARTESIAN_POINT ( 'NONE',  ( 52.41421911327171300, 54.83372107209180500, 0.0000000000000000000 ) ) ;
#77 = VERTEX_POINT ( 'NONE', #222 ) ;
#78 = ADVANCED_FACE ( 'NONE', ( #236 ), #251, .F. ) ;
#79 = UNCERTAINTY_MEASURE_WITH_UNIT (LENGTH_MEASURE( 1.000000000000000100E-005 ), #26, 'distance_accuracy_value', 'NONE');
#80 = APPLICATION_CONTEXT ( 'configuration controlled 3d designs of mechanical parts and assemblies' ) ;
#81 = PERSON_AND_ORGANIZATION ( #6, #114 ) ;
#82 = APPROVAL ( #178, 'Î´Ö¸¶¨' ) ;
#83 = ORIENTED_EDGE ( 'NONE', *, *, #202, .T. ) ;
#84 = CC_DESIGN_DATE_AND_TIME_ASSIGNMENT ( #42, #149, ( #55 ) ) ;
#85 = LINE ( 'NONE', #144, #56 ) ;
#86 = EDGE_LOOP ( 'NONE', ( #196, #159, #60 ) ) ;
#87 = PRODUCT ( '355506', '355506', '', ( #237 ) ) ;
#88 = PERSON_AND_ORGANIZATION ( #6, #114 ) ;
#89 = APPLICATION_CONTEXT ( 'configuration controlled 3d designs of mechanical parts and assemblies' ) ;
#90 = APPROVAL_PERSON_ORGANIZATION ( #268, #43, #146 ) ;
#91 = ORIENTED_EDGE ( 'NONE', *, *, #202, .F. ) ;
#92 = PERSON_AND_ORGANIZATION_ROLE ( 'creator' ) ;
#93 = LOCAL_TIME ( 14, 4, 0.0000000000000000000, #9 ) ;
#94 = PERSON_AND_ORGANIZATION ( #6, #114 ) ;
#95 = DIRECTION ( 'NONE',  ( -0.0000000000000000000, -0.0000000000000000000, -1.000000000000000000 ) ) ;
#96 = PERSON_AND_ORGANIZATION ( #6, #114 ) ;
#97 = ORIENTED_EDGE ( 'NONE', *, *, #261, .F. ) ;
#98 = CARTESIAN_POINT ( 'NONE',  ( 37.41421911327172000, 39.83372107209180500, 15.00000000000000000 ) ) ;
#99 = COORDINATED_UNIVERSAL_TIME_OFFSET ( 8, 0, .AHEAD. ) ;
#100 = PLANE ( 'NONE',  #30 ) ;
#101 = PRODUCT_DEFINITION ( 'Î´Öª', '', #280, #123 ) ;
#102 = PERSON_AND_ORGANIZATION ( #6, #114 ) ;
#103 = COORDINATED_UNIVERSAL_TIME_OFFSET ( 8, 0, .AHEAD. ) ;
#104 = ADVANCED_FACE ( 'NONE', ( #241 ), #100, .F. ) ;
#105 = PERSON_AND_ORGANIZATION_ROLE ( 'creator' ) ;
#106 = CARTESIAN_POINT ( 'NONE',  ( 37.41421911327172000, 39.83372107209180500, 0.0000000000000000000 ) ) ;
#107 = LOCAL_TIME ( 14, 4, 0.0000000000000000000, #232 ) ;
#108 = CC_DESIGN_DATE_AND_TIME_ASSIGNMENT ( #244, #282, ( #101 ) ) ;
#109 = CARTESIAN_POINT ( 'NONE',  ( 37.41421911327172000, 39.83372107209180500, 15.00000000000000000 ) ) ;
#110 = LINE ( 'NONE', #106, #204 ) ;
#111 = DIRECTION ( 'NONE',  ( -0.7071067811865474600, -0.7071067811865474600, -0.0000000000000000000 ) ) ;
#112 = CC_DESIGN_SECURITY_CLASSIFICATION ( #269, ( #28 ) ) ;
#113 = DATE_TIME_ROLE ( 'creation_date' ) ;
#114 = ORGANIZATION ( 'Î´Ö¸¶¨', 'Î´Ö¸¶¨', '' ) ;
#115 = APPROVAL_ROLE ( '' ) ;
#116 = APPLICATION_PROTOCOL_DEFINITION ( 'international standard', 'config_control_design', 1994, #80 ) ;
#117 = VECTOR ( 'NONE', #160, 1000.000000000000000 ) ;
#118 = CARTESIAN_POINT ( 'NONE',  ( 52.41421911327171300, 54.83372107209180500, 15.00000000000000000 ) ) ;
#119 = CC_DESIGN_APPROVAL ( #194, ( #101 ) ) ;
#120 = MANIFOLD_SOLID_BREP ( 'Í¹Ì¨-À­Éì1', #57 ) ;
#121 = FACE_OUTER_BOUND ( 'NONE', #168, .T. ) ;
#122 = ORIENTED_EDGE ( 'NONE', *, *, #41, .F. ) ;
#123 = DESIGN_CONTEXT ( 'detailed design', #46, 'design' ) ;
#124 = APPROVAL_DATE_TIME ( #158, #130 ) ;
#125 = ORIENTED_EDGE ( 'NONE', *, *, #214, .F. ) ;
#126 = PRODUCT_RELATED_PRODUCT_CATEGORY ( 'detail', '', ( #87 ) ) ;
#127 = PERSON_AND_ORGANIZATION_ROLE ( 'design_supplier' ) ;
#128 = VECTOR ( 'NONE', #50, 1000.000000000000000 ) ;
#129 = DATE_AND_TIME ( #171, #93 ) ;
#130 = APPROVAL ( #140, 'Î´Ö¸¶¨' ) ;
#131 = VERTEX_POINT ( 'NONE', #137 ) ;
#132 = LINE ( 'NONE', #224, #172 ) ;
#133 =( GEOMETRIC_REPRESENTATION_CONTEXT ( 3 ) GLOBAL_UNCERTAINTY_ASSIGNED_CONTEXT ( ( #79 ) ) GLOBAL_UNIT_ASSIGNED_CONTEXT ( ( #26, #66, #189 ) ) REPRESENTATION_CONTEXT ( 'NONE', 'WORKASPACE' ) );
#134 = PRODUCT_DEFINITION ( 'Î´Öª', '', #28, #154 ) ;
#135 = ORIENTED_EDGE ( 'NONE', *, *, #252, .F. ) ;
#136 = CARTESIAN_POINT ( 'NONE',  ( 37.41421911327172000, 39.83372107209180500, 15.00000000000000000 ) ) ;
#137 = CARTESIAN_POINT ( 'NONE',  ( 37.41421911327172000, 39.83372107209180500, 0.0000000000000000000 ) ) ;
#138 = APPROVAL ( #31, 'Î´Ö¸¶¨' ) ;
#139 = FACE_OUTER_BOUND ( 'NONE', #86, .T. ) ;
#140 = APPROVAL_STATUS ( 'not_yet_approved' ) ;
#141 = VERTEX_POINT ( 'NONE', #76 ) ;
#142 = DIRECTION ( 'NONE',  ( -0.0000000000000000000, -0.0000000000000000000, -1.000000000000000000 ) ) ;
#143 = LOCAL_TIME ( 14, 4, 0.0000000000000000000, #223 ) ;
#144 = CARTESIAN_POINT ( 'NONE',  ( 52.41421911327171300, 39.83372107209180500, 15.00000000000000000 ) ) ;
#145 = DIRECTION ( 'NONE',  ( 0.0000000000000000000, 0.0000000000000000000, 1.000000000000000000 ) ) ;
#146 = APPROVAL_ROLE ( '' ) ;
#147 = CC_DESIGN_DATE_AND_TIME_ASSIGNMENT ( #148, #113, ( #134 ) ) ;
#148 = DATE_AND_TIME ( #155, #211 ) ;
#149 = DATE_TIME_ROLE ( 'classification_date' ) ;
#150 = COORDINATED_UNIVERSAL_TIME_OFFSET ( 8, 0, .AHEAD. ) ;
#151 = EDGE_LOOP ( 'NONE', ( #255, #135, #122, #83 ) ) ;
#152 = APPROVAL ( #173, 'Î´Ö¸¶¨' ) ;
#153 = DATE_TIME_ROLE ( 'classification_date' ) ;
#154 = DESIGN_CONTEXT ( 'detailed design', #89, 'design' ) ;
#155 = CALENDAR_DATE ( 2019, 22, 7 ) ;
#156 = VECTOR ( 'NONE', #62, 1000.000000000000000 ) ;
#157 = CC_DESIGN_APPROVAL ( #130, ( #280 ) ) ;
#158 = DATE_AND_TIME ( #219, #186 ) ;
#159 = ORIENTED_EDGE ( 'NONE', *, *, #233, .T. ) ;
#160 = DIRECTION ( 'NONE',  ( -0.0000000000000000000, -0.0000000000000000000, -1.000000000000000000 ) ) ;
#161 = CC_DESIGN_PERSON_AND_ORGANIZATION_ASSIGNMENT ( #162, #10, ( #28 ) ) ;
#162 = PERSON_AND_ORGANIZATION ( #6, #114 ) ;
#163 = EDGE_CURVE ( 'NONE', #15, #7, #230, .T. ) ;
#164 = CALENDAR_DATE ( 2019, 22, 7 ) ;
#165 = APPROVAL_PERSON_ORGANIZATION ( #45, #82, #47 ) ;
#166 = PRODUCT_RELATED_PRODUCT_CATEGORY ( 'detail', '', ( #180 ) ) ;
#167 = LINE ( 'NONE', #242, #156 ) ;
#168 = EDGE_LOOP ( 'NONE', ( #210, #91, #198, #249 ) ) ;
#169 = PERSON_AND_ORGANIZATION_ROLE ( 'creator' ) ;
#170 = CC_DESIGN_PERSON_AND_ORGANIZATION_ASSIGNMENT ( #208, #199, ( #55 ) ) ;
#171 = CALENDAR_DATE ( 2019, 22, 7 ) ;
#172 = VECTOR ( 'NONE', #226, 1000.000000000000000 ) ;
#173 = APPROVAL_STATUS ( 'not_yet_approved' ) ;
#174 = LOCAL_TIME ( 14, 4, 0.0000000000000000000, #234 ) ;
#175 = PERSON_AND_ORGANIZATION ( #6, #114 ) ;
#176 = ORIENTED_EDGE ( 'NONE', *, *, #200, .T. ) ;
#177 = SECURITY_CLASSIFICATION_LEVEL ( 'unclassified' ) ;
#178 = APPROVAL_STATUS ( 'not_yet_approved' ) ;
#179 = PERSON_AND_ORGANIZATION_ROLE ( 'design_supplier' ) ;
#180 = PRODUCT ( '355506', '355506', '', ( #67 ) ) ;
#181 = PERSON_AND_ORGANIZATION ( #6, #114 ) ;
#182 = VERTEX_POINT ( 'NONE', #203 ) ;
#183 = PERSON_AND_ORGANIZATION ( #6, #114 ) ;
#184 = APPROVAL_DATE_TIME ( #263, #43 ) ;
#185 = PLANE ( 'NONE',  #24 ) ;
#186 = LOCAL_TIME ( 14, 4, 0.0000000000000000000, #150 ) ;
#187 = DIRECTION ( 'NONE',  ( 0.0000000000000000000, 0.0000000000000000000, 1.000000000000000000 ) ) ;
#188 = CC_DESIGN_PERSON_AND_ORGANIZATION_ASSIGNMENT ( #265, #105, ( #101 ) ) ;
#189 =( NAMED_UNIT ( * ) SI_UNIT ( $, .STERADIAN. ) SOLID_ANGLE_UNIT ( ) );
#190 = DATE_AND_TIME ( #33, #271 ) ;
#191 = LINE ( 'NONE', #253, #117 ) ;
#192 = SECURITY_CLASSIFICATION_LEVEL ( 'unclassified' ) ;
#193 = PLANE ( 'NONE',  #37 ) ;
#194 = APPROVAL ( #25, 'Î´Ö¸¶¨' ) ;
#195 = COORDINATED_UNIVERSAL_TIME_OFFSET ( 8, 0, .AHEAD. ) ;
#196 = ORIENTED_EDGE ( 'NONE', *, *, #41, .T. ) ;
#197 = PERSON_AND_ORGANIZATION_ROLE ( 'design_owner' ) ;
#198 = ORIENTED_EDGE ( 'NONE', *, *, #163, .F. ) ;
#199 = PERSON_AND_ORGANIZATION_ROLE ( 'classification_officer' ) ;
#200 = EDGE_CURVE ( 'NONE', #182, #141, #132, .T. ) ;
#201 = APPROVAL_DATE_TIME ( #276, #138 ) ;
#202 = EDGE_CURVE ( 'NONE', #7, #131, #12, .T. ) ;
#203 = CARTESIAN_POINT ( 'NONE',  ( 52.41421911327171300, 39.83372107209180500, 0.0000000000000000000 ) ) ;
#204 = VECTOR ( 'NONE', #111, 1000.000000000000100 ) ;
#205 = EDGE_LOOP ( 'NONE', ( #259, #97, #44 ) ) ;
#206 = CARTESIAN_POINT ( 'NONE',  ( 52.41421911327171300, 39.83372107209180500, 0.0000000000000000000 ) ) ;
#207 = DATE_AND_TIME ( #270, #107 ) ;
#208 = PERSON_AND_ORGANIZATION ( #6, #114 ) ;
#209 = APPROVAL_PERSON_ORGANIZATION ( #272, #152, #115 ) ;
#210 = ORIENTED_EDGE ( 'NONE', *, *, #261, .T. ) ;
#211 = LOCAL_TIME ( 14, 4, 0.0000000000000000000, #243 ) ;
#212 = LOCAL_TIME ( 14, 4, 0.0000000000000000000, #103 ) ;
#213 = CARTESIAN_POINT ( 'NONE',  ( 0.0000000000000000000, 0.0000000000000000000, 0.0000000000000000000 ) ) ;
#214 = EDGE_CURVE ( 'NONE', #15, #141, #191, .T. ) ;
#215 = APPROVAL_PERSON_ORGANIZATION ( #278, #130, #22 ) ;
#216 = APPLICATION_PROTOCOL_DEFINITION ( 'international standard', 'config_control_design', 1994, #89 ) ;
#217 = DIRECTION ( 'NONE',  ( 0.0000000000000000000, 1.000000000000000000, -0.0000000000000000000 ) ) ;
#218 = APPROVAL_PERSON_ORGANIZATION ( #81, #138, #267 ) ;
#219 = CALENDAR_DATE ( 2019, 22, 7 ) ;
#220 = CARTESIAN_POINT ( 'NONE',  ( 37.41421911327172000, 39.83372107209180500, 15.00000000000000000 ) ) ;
#221 = EDGE_CURVE ( 'NONE', #131, #182, #3, .T. ) ;
#222 = CARTESIAN_POINT ( 'NONE',  ( 52.41421911327171300, 39.83372107209180500, 15.00000000000000000 ) ) ;
#223 = COORDINATED_UNIVERSAL_TIME_OFFSET ( 8, 0, .AHEAD. ) ;
#224 = CARTESIAN_POINT ( 'NONE',  ( 52.41421911327171300, 39.83372107209180500, 0.0000000000000000000 ) ) ;
#225 = FACE_OUTER_BOUND ( 'NONE', #205, .T. ) ;
#226 = DIRECTION ( 'NONE',  ( 0.0000000000000000000, 1.000000000000000000, 0.0000000000000000000 ) ) ;
#227 = LOCAL_TIME ( 14, 4, 0.0000000000000000000, #99 ) ;
#228 = AXIS2_PLACEMENT_3D ( 'NONE', #275, #16, #38 ) ;
#229 = ADVANCED_FACE ( 'NONE', ( #139 ), #256, .F. ) ;
#230 = LINE ( 'NONE', #98, #74 ) ;
#231 = CC_DESIGN_APPROVAL ( #138, ( #28 ) ) ;
#232 = COORDINATED_UNIVERSAL_TIME_OFFSET ( 8, 0, .AHEAD. ) ;
#233 = EDGE_CURVE ( 'NONE', #77, #15, #167, .T. ) ;
#234 = COORDINATED_UNIVERSAL_TIME_OFFSET ( 8, 0, .AHEAD. ) ;
#235 = PERSON_AND_ORGANIZATION ( #6, #114 ) ;
#236 = FACE_OUTER_BOUND ( 'NONE', #151, .T. ) ;
#237 = MECHANICAL_CONTEXT ( 'NONE', #239, 'mechanical' ) ;
#238 = APPROVAL_DATE_TIME ( #59, #152 ) ;
#239 = APPLICATION_CONTEXT ( 'configuration controlled 3d designs of mechanical parts and assemblies' ) ;
#240 = DIRECTION ( 'NONE',  ( 0.7071067811865475700, -0.7071067811865475700, 0.0000000000000000000 ) ) ;
#241 = FACE_OUTER_BOUND ( 'NONE', #64, .T. ) ;
#242 = CARTESIAN_POINT ( 'NONE',  ( 52.41421911327171300, 39.83372107209180500, 15.00000000000000000 ) ) ;
#243 = COORDINATED_UNIVERSAL_TIME_OFFSET ( 8, 0, .AHEAD. ) ;
#244 = DATE_AND_TIME ( #281, #49 ) ;
#245 = ORIENTED_EDGE ( 'NONE', *, *, #233, .F. ) ;
#246 = PERSON_AND_ORGANIZATION_ROLE ( 'classification_officer' ) ;
#247 = CARTESIAN_POINT ( 'NONE',  ( 52.41421911327171300, 39.83372107209180500, 15.00000000000000000 ) ) ;
#248 = CC_DESIGN_PERSON_AND_ORGANIZATION_ASSIGNMENT ( #96, #169, ( #280 ) ) ;
#249 = ORIENTED_EDGE ( 'NONE', *, *, #214, .T. ) ;
#250 = VECTOR ( 'NONE', #277, 1000.000000000000000 ) ;
#251 = PLANE ( 'NONE',  #257 ) ;
#252 = EDGE_CURVE ( 'NONE', #77, #182, #85, .T. ) ;
#253 = CARTESIAN_POINT ( 'NONE',  ( 52.41421911327171300, 54.83372107209180500, 15.00000000000000000 ) ) ;
#254 = COORDINATED_UNIVERSAL_TIME_OFFSET ( 8, 0, .AHEAD. ) ;
#255 = ORIENTED_EDGE ( 'NONE', *, *, #221, .T. ) ;
#256 = PLANE ( 'NONE',  #228 ) ;
#257 = AXIS2_PLACEMENT_3D ( 'NONE', #247, #217, #187 ) ;
#258 = SHAPE_DEFINITION_REPRESENTATION ( #13, #70 ) ;
#259 = ORIENTED_EDGE ( 'NONE', *, *, #221, .F. ) ;
#260 = PERSON_AND_ORGANIZATION_ROLE ( 'design_owner' ) ;
#261 = EDGE_CURVE ( 'NONE', #141, #131, #110, .T. ) ;
#262 = DIRECTION ( 'NONE',  ( 0.7071067811865474600, 0.7071067811865474600, 0.0000000000000000000 ) ) ;
#263 = DATE_AND_TIME ( #21, #174 ) ;
#264 = DIRECTION ( 'NONE',  ( 0.0000000000000000000, 0.0000000000000000000, 1.000000000000000000 ) ) ;
#265 = PERSON_AND_ORGANIZATION ( #6, #114 ) ;
#266 = CC_DESIGN_PERSON_AND_ORGANIZATION_ASSIGNMENT ( #175, #127, ( #280 ) ) ;
#267 = APPROVAL_ROLE ( '' ) ;
#268 = PERSON_AND_ORGANIZATION ( #6, #114 ) ;
#269 = SECURITY_CLASSIFICATION ( '', '', #177 ) ;
#270 = CALENDAR_DATE ( 2019, 22, 7 ) ;
#271 = LOCAL_TIME ( 14, 4, 0.0000000000000000000, #195 ) ;
#272 = PERSON_AND_ORGANIZATION ( #6, #114 ) ;
#273 = CARTESIAN_POINT ( 'NONE',  ( 52.41421911327171300, 39.83372107209180500, 15.00000000000000000 ) ) ;
#274 = ADVANCED_FACE ( 'NONE', ( #121 ), #193, .F. ) ;
#275 = CARTESIAN_POINT ( 'NONE',  ( 0.0000000000000000000, 0.0000000000000000000, 15.00000000000000000 ) ) ;
#276 = DATE_AND_TIME ( #48, #227 ) ;
#277 = DIRECTION ( 'NONE',  ( 1.000000000000000000, -0.0000000000000000000, -0.0000000000000000000 ) ) ;
#278 = PERSON_AND_ORGANIZATION ( #6, #114 ) ;
#279 = CALENDAR_DATE ( 2019, 22, 7 ) ;
#280 = PRODUCT_DEFINITION_FORMATION_WITH_SPECIFIED_SOURCE ( 'ÈÎºÎ', '', #87, .NOT_KNOWN. ) ;
#281 = CALENDAR_DATE ( 2019, 22, 7 ) ;
#282 = DATE_TIME_ROLE ( 'creation_date' ) ;
ENDSEC;
END-ISO-10303-21;
