ISO-10303-21;
HEADER;
FILE_DESCRIPTION (( 'STEP AP203' ),
    '1' );
FILE_NAME ('270650.step',
    '2024-12-24T02:22:30',
    ( '' ),
    ( '' ),
    'SwSTEP 2.0',
    'SolidWorks 2020',
    '' );
FILE_SCHEMA (( 'CONFIG_CONTROL_DESIGN' ));
ENDSEC;

DATA;
#1 = EDGE_CURVE ( 'NONE', #202, #273, #163, .T. ) ;
#2 = CIRCLE ( 'NONE', #49, 999.9218719480036270 ) ;
#3 = CARTESIAN_POINT ( 'NONE',  ( 10.00000000000000178, 12.50000000000000000, -10.00000000000000000 ) ) ;
#4 = ORIENTED_EDGE ( 'NONE', *, *, #12, .T. ) ;
#5 = FACE_OUTER_BOUND ( 'NONE', #277, .T. ) ;
#6 = ORIENTED_EDGE ( 'NONE', *, *, #1, .T. ) ;
#7 = CIRCLE ( 'NONE', #109, 999.9218719480037407 ) ;
#8 = CC_DESIGN_PERSON_AND_ORGANIZATION_ASSIGNMENT ( #155, #16, ( #80 ) ) ;
#9 = PERSON_AND_ORGANIZATION_ROLE ( 'creator' ) ;
#10 = CLOSED_SHELL ( 'NONE', ( #258, #70, #120, #35, #148, #55, #60 ) ) ;
#11 = CIRCLE ( 'NONE', #248, 999.6874511566103365 ) ;
#12 = EDGE_CURVE ( 'NONE', #54, #126, #115, .T. ) ;
#13 = APPROVAL_ROLE ( '' ) ;
#14 = DIRECTION ( 'NONE',  ( -0.000000000000000000, -0.000000000000000000, -1.000000000000000000 ) ) ;
#15 = CARTESIAN_POINT ( 'NONE',  ( 10.00000000000000178, 12.50000000000000000, -10.00000000000000000 ) ) ;
#16 = PERSON_AND_ORGANIZATION_ROLE ( 'design_owner' ) ;
#17 = APPROVAL ( #81, 'Î´Ö¸¶¨' ) ;
#18 = PLANE ( 'NONE',  #40 ) ;
#19 = DATE_AND_TIME ( #67, #192 ) ;
#20 = ORIENTED_EDGE ( 'NONE', *, *, #173, .T. ) ;
#21 = DIRECTION ( 'NONE',  ( -1.000000000000000000, -1.734723475976807094E-16, 0.000000000000000000 ) ) ;
#22 = EDGE_CURVE ( 'NONE', #65, #54, #94, .T. ) ;
#23 = DIRECTION ( 'NONE',  ( 0.000000000000000000, 0.000000000000000000, -1.000000000000000000 ) ) ;
#24 = CALENDAR_DATE ( 2024, 24, 12 ) ;
#25 = LOCAL_TIME ( 10, 22, 30.00000000000000000, #243 ) ;
#26 = CARTESIAN_POINT ( 'NONE',  ( -9.999999999999998224, -12.50000000000000355, 10.00000000000000000 ) ) ;
#27 = PERSON_AND_ORGANIZATION ( #102, #196 ) ;
#28 = VECTOR ( 'NONE', #86, 1000.000000000000000 ) ;
#29 = APPLICATION_CONTEXT ( 'configuration controlled 3d designs of mechanical parts and assemblies' ) ;
#30 = PLANE ( 'NONE',  #73 ) ;
#31 = ORIENTED_EDGE ( 'NONE', *, *, #12, .F. ) ;
#32 = DIRECTION ( 'NONE',  ( -0.000000000000000000, -0.000000000000000000, -1.000000000000000000 ) ) ;
#33 = ORIENTED_EDGE ( 'NONE', *, *, #267, .F. ) ;
#34 = VECTOR ( 'NONE', #66, 1000.000000000000000 ) ;
#35 = ADVANCED_FACE ( 'NONE', ( #171 ), #30, .F. ) ;
#36 = FACE_OUTER_BOUND ( 'NONE', #218, .T. ) ;
#37 = CALENDAR_DATE ( 2024, 24, 12 ) ;
#38 = DIRECTION ( 'NONE',  ( 0.000000000000000000, 1.000000000000000000, -0.000000000000000000 ) ) ;
#39 = FACE_OUTER_BOUND ( 'NONE', #232, .T. ) ;
#40 = AXIS2_PLACEMENT_3D ( 'NONE', #181, #269, #21 ) ;
#41 = CARTESIAN_POINT ( 'NONE',  ( 10.00000000000000178, -12.50000000000000000, -0.9093708931823263342 ) ) ;
#42 = DIRECTION ( 'NONE',  ( 0.000000000000000000, 1.000000000000000000, -0.000000000000000000 ) ) ;
#43 = DIRECTION ( 'NONE',  ( 1.000000000000000000, 0.000000000000000000, -0.000000000000000000 ) ) ;
#44 = VERTEX_POINT ( 'NONE', #3 ) ;
#45 = EDGE_CURVE ( 'NONE', #202, #54, #237, .T. ) ;
#46 = DATE_AND_TIME ( #24, #51 ) ;
#47 = CC_DESIGN_PERSON_AND_ORGANIZATION_ASSIGNMENT ( #143, #209, ( #98 ) ) ;
#48 = ORIENTED_EDGE ( 'NONE', *, *, #1, .F. ) ;
#49 = AXIS2_PLACEMENT_3D ( 'NONE', #107, #272, #108 ) ;
#50 = AXIS2_PLACEMENT_3D ( 'NONE', #190, #168, #239 ) ;
#51 = LOCAL_TIME ( 10, 22, 30.00000000000000000, #255 ) ;
#52 = ORIENTED_EDGE ( 'NONE', *, *, #187, .F. ) ;
#53 = ORIENTED_EDGE ( 'NONE', *, *, #111, .F. ) ;
#54 = VERTEX_POINT ( 'NONE', #216 ) ;
#55 = ADVANCED_FACE ( 'NONE', ( #5 ), #96, .F. ) ;
#56 = APPLICATION_CONTEXT ( 'configuration controlled 3d designs of mechanical parts and assemblies' ) ;
#57 = APPROVAL_PERSON_ORGANIZATION ( #138, #178, #13 ) ;
#58 = DATE_AND_TIME ( #37, #25 ) ;
#59 = CARTESIAN_POINT ( 'NONE',  ( 10.00000000000000178, -12.50000000000000000, 10.00000000000000000 ) ) ;
#60 = ADVANCED_FACE ( 'NONE', ( #64 ), #146, .F. ) ;
#61 = DATE_AND_TIME ( #246, #63 ) ;
#62 = DIRECTION ( 'NONE',  ( -1.000000000000000000, -1.734859017132303730E-16, 0.000000000000000000 ) ) ;
#63 = LOCAL_TIME ( 10, 22, 30.00000000000000000, #157 ) ;
#64 = FACE_OUTER_BOUND ( 'NONE', #240, .T. ) ;
#65 = VERTEX_POINT ( 'NONE', #253 ) ;
#66 = DIRECTION ( 'NONE',  ( 0.000000000000000000, 1.000000000000000000, 0.000000000000000000 ) ) ;
#67 = CALENDAR_DATE ( 2024, 24, 12 ) ;
#68 = PRODUCT_DEFINITION ( 'Î´Öª', '', #87, #88 ) ;
#69 = ORIENTED_EDGE ( 'NONE', *, *, #76, .F. ) ;
#70 = ADVANCED_FACE ( 'NONE', ( #125 ), #159, .F. ) ;
#71 = CARTESIAN_POINT ( 'NONE',  ( -9.999999999999998224, -12.50000000000000355, -10.00000000000000000 ) ) ;
#72 = ORIENTED_EDGE ( 'NONE', *, *, #103, .F. ) ;
#73 = AXIS2_PLACEMENT_3D ( 'NONE', #113, #188, #149 ) ;
#74 = DIRECTION ( 'NONE',  ( 0.000000000000000000, -0.000000000000000000, 1.000000000000000000 ) ) ;
#75 = EDGE_LOOP ( 'NONE', ( #150, #128, #217, #4 ) ) ;
#76 = EDGE_CURVE ( 'NONE', #273, #215, #251, .T. ) ;
#77 =( GEOMETRIC_REPRESENTATION_CONTEXT ( 3 ) GLOBAL_UNCERTAINTY_ASSIGNED_CONTEXT ( ( #207 ) ) GLOBAL_UNIT_ASSIGNED_CONTEXT ( ( #101, #265, #79 ) ) REPRESENTATION_CONTEXT ( 'NONE', 'WORKASPACE' ) );
#78 = CARTESIAN_POINT ( 'NONE',  ( -10.00000000000000000, -12.50000000000000355, -0.6092986762377128329 ) ) ;
#79 =( NAMED_UNIT ( * ) SI_UNIT ( $, .STERADIAN. ) SOLID_ANGLE_UNIT ( ) );
#80 = PRODUCT ( '270650', '270650', '', ( #136 ) ) ;
#81 = APPROVAL_STATUS ( 'not_yet_approved' ) ;
#82 = DIRECTION ( 'NONE',  ( -1.734723475976807094E-16, 1.000000000000000000, 0.000000000000000000 ) ) ;
#83 = EDGE_CURVE ( 'NONE', #126, #44, #110, .T. ) ;
#84 = DATE_AND_TIME ( #100, #118 ) ;
#85 = DIRECTION ( 'NONE',  ( 0.000000000000000000, 0.000000000000000000, 1.000000000000000000 ) ) ;
#86 = DIRECTION ( 'NONE',  ( -0.000000000000000000, -0.000000000000000000, -1.000000000000000000 ) ) ;
#87 = PRODUCT_DEFINITION_FORMATION_WITH_SPECIFIED_SOURCE ( 'ÈÎºÎ', '', #80, .NOT_KNOWN. ) ;
#88 = DESIGN_CONTEXT ( 'detailed design', #56, 'design' ) ;
#89 = AXIS2_PLACEMENT_3D ( 'NONE', #121, #198, #264 ) ;
#90 = FACE_OUTER_BOUND ( 'NONE', #75, .T. ) ;
#91 = ORIENTED_EDGE ( 'NONE', *, *, #83, .T. ) ;
#92 = APPROVAL_ROLE ( '' ) ;
#93 = PRODUCT_RELATED_PRODUCT_CATEGORY ( 'detail', '', ( #80 ) ) ;
#94 = LINE ( 'NONE', #71, #276 ) ;
#95 = VERTEX_POINT ( 'NONE', #208 ) ;
#96 = PLANE ( 'NONE',  #184 ) ;
#97 = ORIENTED_EDGE ( 'NONE', *, *, #187, .T. ) ;
#98 = SECURITY_CLASSIFICATION ( '', '', #254 ) ;
#99 = AXIS2_PLACEMENT_3D ( 'NONE', #195, #153, #154 ) ;
#100 = CALENDAR_DATE ( 2024, 24, 12 ) ;
#101 =( LENGTH_UNIT ( ) NAMED_UNIT ( * ) SI_UNIT ( .MILLI., .METRE. ) );
#102 = PERSON ( 'Î´Ö¸¶¨', 'Î´Ö¸¶¨', 'Î´Ö¸¶¨', ('Î´Ö¸¶¨'), ('Î´Ö¸¶¨'), ('Î´Ö¸¶¨') ) ;
#103 = EDGE_CURVE ( 'NONE', #95, #191, #2, .T. ) ;
#104 = DIRECTION ( 'NONE',  ( -1.000000000000000000, -1.734723475976807094E-16, 0.000000000000000000 ) ) ;
#105 = COORDINATED_UNIVERSAL_TIME_OFFSET ( 8, 0, .AHEAD. ) ;
#106 = DIRECTION ( 'NONE',  ( 1.000000000000000000, 1.734723475976807094E-16, 0.000000000000000000 ) ) ;
#107 = CARTESIAN_POINT ( 'NONE',  ( 15.00000000000012257, 12.50000000000000178, 999.0000000000001137 ) ) ;
#108 = DIRECTION ( 'NONE',  ( 1.000000000000000000, 1.734859017132303976E-16, 0.000000000000000000 ) ) ;
#109 = AXIS2_PLACEMENT_3D ( 'NONE', #247, #82, #62 ) ;
#110 = LINE ( 'NONE', #165, #34 ) ;
#111 = EDGE_CURVE ( 'NONE', #191, #44, #183, .T. ) ;
#112 = VECTOR ( 'NONE', #104, 1000.000000000000000 ) ;
#113 = CARTESIAN_POINT ( 'NONE',  ( 10.00000000000000178, -12.50000000000000000, 10.00000000000000000 ) ) ;
#114 = ORIENTED_EDGE ( 'NONE', *, *, #45, .F. ) ;
#115 = LINE ( 'NONE', #259, #236 ) ;
#116 = ORIENTED_EDGE ( 'NONE', *, *, #22, .F. ) ;
#117 = AXIS2_PLACEMENT_3D ( 'NONE', #180, #38, #268 ) ;
#118 = LOCAL_TIME ( 10, 22, 30.00000000000000000, #105 ) ;
#119 = PERSON_AND_ORGANIZATION ( #102, #196 ) ;
#120 = ADVANCED_FACE ( 'NONE', ( #90 ), #18, .F. ) ;
#121 = CARTESIAN_POINT ( 'NONE',  ( 0.000000000000000000, 0.000000000000000000, 0.000000000000000000 ) ) ;
#122 = CC_DESIGN_SECURITY_CLASSIFICATION ( #98, ( #87 ) ) ;
#123 = DIRECTION ( 'NONE',  ( 0.000000000000000000, 0.000000000000000000, -1.000000000000000000 ) ) ;
#124 = CARTESIAN_POINT ( 'NONE',  ( -9.999999999999998224, 0.000000000000000000, 999.0000000000001137 ) ) ;
#125 = FACE_OUTER_BOUND ( 'NONE', #211, .T. ) ;
#126 = VERTEX_POINT ( 'NONE', #226 ) ;
#127 = CARTESIAN_POINT ( 'NONE',  ( 15.00000000000012434, 0.000000000000000000, 999.0000000000001137 ) ) ;
#128 = ORIENTED_EDGE ( 'NONE', *, *, #144, .T. ) ;
#129 = APPROVAL_PERSON_ORGANIZATION ( #185, #135, #92 ) ;
#130 = EDGE_LOOP ( 'NONE', ( #53, #162, #172, #166, #91 ) ) ;
#131 = CC_DESIGN_APPROVAL ( #135, ( #98 ) ) ;
#132 = CARTESIAN_POINT ( 'NONE',  ( -9.999999999999998224, -12.50000000000000355, 10.00000000000000000 ) ) ;
#133 = ORIENTED_EDGE ( 'NONE', *, *, #111, .T. ) ;
#134 = ORIENTED_EDGE ( 'NONE', *, *, #224, .F. ) ;
#135 = APPROVAL ( #205, 'Î´Ö¸¶¨' ) ;
#136 = MECHANICAL_CONTEXT ( 'NONE', #29, 'mechanical' ) ;
#137 = APPROVAL_STATUS ( 'not_yet_approved' ) ;
#138 = PERSON_AND_ORGANIZATION ( #102, #196 ) ;
#139 = DIRECTION ( 'NONE',  ( -0.000000000000000000, -0.000000000000000000, -1.000000000000000000 ) ) ;
#140 = CIRCLE ( 'NONE', #99, 999.9874999218741323 ) ;
#141 = CARTESIAN_POINT ( 'NONE',  ( 10.00000000000000178, 12.50000000000000000, 10.00000000000000000 ) ) ;
#142 = CIRCLE ( 'NONE', #186, 999.9874999218741323 ) ;
#143 = PERSON_AND_ORGANIZATION ( #102, #196 ) ;
#144 = EDGE_CURVE ( 'NONE', #169, #202, #7, .T. ) ;
#145 = ORIENTED_EDGE ( 'NONE', *, *, #76, .T. ) ;
#146 = SPHERICAL_SURFACE ( 'NONE', #170, 1000.000000000000000 ) ;
#147 = ORIENTED_EDGE ( 'NONE', *, *, #22, .T. ) ;
#148 = ADVANCED_FACE ( 'NONE', ( #39 ), #179, .F. ) ;
#149 = DIRECTION ( 'NONE',  ( 0.000000000000000000, 0.000000000000000000, 1.000000000000000000 ) ) ;
#150 = ORIENTED_EDGE ( 'NONE', *, *, #199, .F. ) ;
#151 = DIRECTION ( 'NONE',  ( 1.000000000000000000, 1.734723475976807094E-16, -0.000000000000000000 ) ) ;
#152 = ORIENTED_EDGE ( 'NONE', *, *, #173, .F. ) ;
#153 = DIRECTION ( 'NONE',  ( -1.000000000000000000, 0.000000000000000000, 0.000000000000000000 ) ) ;
#154 = DIRECTION ( 'NONE',  ( 0.000000000000000000, 0.000000000000000000, 1.000000000000000000 ) ) ;
#155 = PERSON_AND_ORGANIZATION ( #102, #196 ) ;
#156 = CARTESIAN_POINT ( 'NONE',  ( 10.00000000000000178, 12.50000000000000000, -0.9093708931823263342 ) ) ;
#157 = COORDINATED_UNIVERSAL_TIME_OFFSET ( 8, 0, .AHEAD. ) ;
#158 = DIRECTION ( 'NONE',  ( 1.734723475976807094E-16, -1.000000000000000000, 0.000000000000000000 ) ) ;
#159 = PLANE ( 'NONE',  #161 ) ;
#160 = COORDINATED_UNIVERSAL_TIME_OFFSET ( 8, 0, .AHEAD. ) ;
#161 = AXIS2_PLACEMENT_3D ( 'NONE', #26, #233, #204 ) ;
#162 = ORIENTED_EDGE ( 'NONE', *, *, #167, .T. ) ;
#163 = CIRCLE ( 'NONE', #50, 999.6874511566103365 ) ;
#164 = CC_DESIGN_APPROVAL ( #178, ( #68 ) ) ;
#165 = CARTESIAN_POINT ( 'NONE',  ( 10.00000000000000178, -12.50000000000000000, -10.00000000000000000 ) ) ;
#166 = ORIENTED_EDGE ( 'NONE', *, *, #199, .T. ) ;
#167 = EDGE_CURVE ( 'NONE', #191, #215, #142, .T. ) ;
#168 = DIRECTION ( 'NONE',  ( 1.000000000000000000, 0.000000000000000000, 0.000000000000000000 ) ) ;
#169 = VERTEX_POINT ( 'NONE', #41 ) ;
#170 = AXIS2_PLACEMENT_3D ( 'NONE', #249, #42, #230 ) ;
#171 = FACE_OUTER_BOUND ( 'NONE', #130, .T. ) ;
#172 = ORIENTED_EDGE ( 'NONE', *, *, #224, .T. ) ;
#173 = EDGE_CURVE ( 'NONE', #273, #95, #11, .T. ) ;
#174 = CARTESIAN_POINT ( 'NONE',  ( 10.00000000000000178, 0.000000000000000000, -0.9874999218738578222 ) ) ;
#175 = SPHERICAL_SURFACE ( 'NONE', #117, 1000.000000000000000 ) ;
#176 = DATE_TIME_ROLE ( 'creation_date' ) ;
#177 = APPROVAL_DATE_TIME ( #58, #178 ) ;
#178 = APPROVAL ( #137, 'Î´Ö¸¶¨' ) ;
#179 = PLANE ( 'NONE',  #213 ) ;
#180 = CARTESIAN_POINT ( 'NONE',  ( 15.00000000000012434, 0.000000000000000000, 999.0000000000001137 ) ) ;
#181 = CARTESIAN_POINT ( 'NONE',  ( 10.00000000000000178, -12.50000000000000000, 10.00000000000000000 ) ) ;
#182 = DIRECTION ( 'NONE',  ( 0.000000000000000000, -1.000000000000000000, 0.000000000000000000 ) ) ;
#183 = LINE ( 'NONE', #275, #28 ) ;
#184 = AXIS2_PLACEMENT_3D ( 'NONE', #262, #74, #43 ) ;
#185 = PERSON_AND_ORGANIZATION ( #102, #196 ) ;
#186 = AXIS2_PLACEMENT_3D ( 'NONE', #229, #271, #85 ) ;
#187 = EDGE_CURVE ( 'NONE', #44, #65, #203, .T. ) ;
#188 = DIRECTION ( 'NONE',  ( -1.000000000000000000, 0.000000000000000000, 0.000000000000000000 ) ) ;
#189 = ORIENTED_EDGE ( 'NONE', *, *, #167, .F. ) ;
#190 = CARTESIAN_POINT ( 'NONE',  ( -9.999999999999998224, 0.000000000000000000, 999.0000000000001137 ) ) ;
#191 = VERTEX_POINT ( 'NONE', #156 ) ;
#192 = LOCAL_TIME ( 10, 22, 30.00000000000000000, #160 ) ;
#193 = PERSON_AND_ORGANIZATION ( #102, #196 ) ;
#194 = VECTOR ( 'NONE', #139, 1000.000000000000000 ) ;
#195 = CARTESIAN_POINT ( 'NONE',  ( 10.00000000000000178, 0.000000000000000000, 999.0000000000001137 ) ) ;
#196 = ORGANIZATION ( 'Î´Ö¸¶¨', 'Î´Ö¸¶¨', '' ) ;
#197 = CARTESIAN_POINT ( 'NONE',  ( -9.999999999999998224, 0.000000000000000000, -0.6874511566101748627 ) ) ;
#198 = DIRECTION ( 'NONE',  ( 0.000000000000000000, 0.000000000000000000, 1.000000000000000000 ) ) ;
#199 = EDGE_CURVE ( 'NONE', #169, #126, #245, .T. ) ;
#200 = DIRECTION ( 'NONE',  ( 1.000000000000000000, 0.000000000000000000, 0.000000000000000000 ) ) ;
#201 = SHAPE_DEFINITION_REPRESENTATION ( #257, #219 ) ;
#202 = VERTEX_POINT ( 'NONE', #78 ) ;
#203 = LINE ( 'NONE', #15, #112 ) ;
#204 = DIRECTION ( 'NONE',  ( 0.000000000000000000, 0.000000000000000000, -1.000000000000000000 ) ) ;
#205 = APPROVAL_STATUS ( 'not_yet_approved' ) ;
#206 = CC_DESIGN_PERSON_AND_ORGANIZATION_ASSIGNMENT ( #193, #9, ( #87 ) ) ;
#207 = UNCERTAINTY_MEASURE_WITH_UNIT (LENGTH_MEASURE( 1.000000000000000082E-05 ), #101, 'distance_accuracy_value', 'NONE');
#208 = CARTESIAN_POINT ( 'NONE',  ( -9.999999999999996447, 12.49999999999999645, -0.6092986762377128329 ) ) ;
#209 = PERSON_AND_ORGANIZATION_ROLE ( 'classification_officer' ) ;
#210 = CC_DESIGN_APPROVAL ( #17, ( #87 ) ) ;
#211 = EDGE_LOOP ( 'NONE', ( #114, #6, #20, #260, #147 ) ) ;
#212 = CC_DESIGN_DATE_AND_TIME_ASSIGNMENT ( #84, #176, ( #68 ) ) ;
#213 = AXIS2_PLACEMENT_3D ( 'NONE', #141, #158, #106 ) ;
#214 = DIRECTION ( 'NONE',  ( -0.000000000000000000, -1.000000000000000000, -0.000000000000000000 ) ) ;
#215 = VERTEX_POINT ( 'NONE', #174 ) ;
#216 = CARTESIAN_POINT ( 'NONE',  ( -9.999999999999998224, -12.50000000000000355, -10.00000000000000000 ) ) ;
#217 = ORIENTED_EDGE ( 'NONE', *, *, #45, .T. ) ;
#218 = EDGE_LOOP ( 'NONE', ( #152, #145, #189, #72 ) ) ;
#219 = ADVANCED_BREP_SHAPE_REPRESENTATION ( '270650', ( #223, #89 ), #77 ) ;
#220 = LINE ( 'NONE', #242, #221 ) ;
#221 = VECTOR ( 'NONE', #14, 1000.000000000000000 ) ;
#222 = PERSON_AND_ORGANIZATION_ROLE ( 'creator' ) ;
#223 = MANIFOLD_SOLID_BREP ( 'ÇÐ³ý-Ðý×ª8', #10 ) ;
#224 = EDGE_CURVE ( 'NONE', #215, #169, #140, .T. ) ;
#225 = APPROVAL_ROLE ( '' ) ;
#226 = CARTESIAN_POINT ( 'NONE',  ( 10.00000000000000178, -12.50000000000000000, -10.00000000000000000 ) ) ;
#227 = VECTOR ( 'NONE', #32, 1000.000000000000000 ) ;
#228 = APPROVAL_DATE_TIME ( #61, #17 ) ;
#229 = CARTESIAN_POINT ( 'NONE',  ( 10.00000000000000178, 0.000000000000000000, 999.0000000000001137 ) ) ;
#230 = DIRECTION ( 'NONE',  ( -1.000000000000000000, 0.000000000000000000, 1.110223024625156540E-16 ) ) ;
#231 = DATE_TIME_ROLE ( 'classification_date' ) ;
#232 = EDGE_LOOP ( 'NONE', ( #33, #263, #133, #97 ) ) ;
#233 = DIRECTION ( 'NONE',  ( 1.000000000000000000, 0.000000000000000000, 0.000000000000000000 ) ) ;
#234 = PERSON_AND_ORGANIZATION_ROLE ( 'design_supplier' ) ;
#235 = CC_DESIGN_DATE_AND_TIME_ASSIGNMENT ( #46, #231, ( #98 ) ) ;
#236 = VECTOR ( 'NONE', #151, 1000.000000000000000 ) ;
#237 = LINE ( 'NONE', #132, #227 ) ;
#238 = ORIENTED_EDGE ( 'NONE', *, *, #83, .F. ) ;
#239 = DIRECTION ( 'NONE',  ( 0.000000000000000000, 0.000000000000000000, -1.000000000000000000 ) ) ;
#240 = EDGE_LOOP ( 'NONE', ( #69, #48, #252, #134 ) ) ;
#241 = APPROVAL_PERSON_ORGANIZATION ( #266, #17, #225 ) ;
#242 = CARTESIAN_POINT ( 'NONE',  ( -9.999999999999998224, 12.49999999999999645, 10.00000000000000000 ) ) ;
#243 = COORDINATED_UNIVERSAL_TIME_OFFSET ( 8, 0, .AHEAD. ) ;
#244 = APPLICATION_PROTOCOL_DEFINITION ( 'international standard', 'config_control_design', 1994, #56 ) ;
#245 = LINE ( 'NONE', #59, #194 ) ;
#246 = CALENDAR_DATE ( 2024, 24, 12 ) ;
#247 = CARTESIAN_POINT ( 'NONE',  ( 15.00000000000012612, -12.49999999999999822, 999.0000000000001137 ) ) ;
#248 = AXIS2_PLACEMENT_3D ( 'NONE', #124, #200, #123 ) ;
#249 = CARTESIAN_POINT ( 'NONE',  ( 15.00000000000012434, 0.000000000000000000, 999.0000000000001137 ) ) ;
#250 = APPROVAL_DATE_TIME ( #19, #135 ) ;
#251 = CIRCLE ( 'NONE', #274, 1000.000000000000000 ) ;
#252 = ORIENTED_EDGE ( 'NONE', *, *, #144, .F. ) ;
#253 = CARTESIAN_POINT ( 'NONE',  ( -9.999999999999998224, 12.49999999999999645, -10.00000000000000000 ) ) ;
#254 = SECURITY_CLASSIFICATION_LEVEL ( 'unclassified' ) ;
#255 = COORDINATED_UNIVERSAL_TIME_OFFSET ( 8, 0, .AHEAD. ) ;
#256 = CC_DESIGN_PERSON_AND_ORGANIZATION_ASSIGNMENT ( #27, #234, ( #87 ) ) ;
#257 = PRODUCT_DEFINITION_SHAPE ( 'NONE', 'NONE',  #68 ) ;
#258 = ADVANCED_FACE ( 'NONE', ( #36 ), #175, .F. ) ;
#259 = CARTESIAN_POINT ( 'NONE',  ( 10.00000000000000178, -12.50000000000000000, -10.00000000000000000 ) ) ;
#260 = ORIENTED_EDGE ( 'NONE', *, *, #267, .T. ) ;
#261 = CC_DESIGN_PERSON_AND_ORGANIZATION_ASSIGNMENT ( #119, #222, ( #68 ) ) ;
#262 = CARTESIAN_POINT ( 'NONE',  ( 0.000000000000000000, 0.000000000000000000, -10.00000000000000000 ) ) ;
#263 = ORIENTED_EDGE ( 'NONE', *, *, #103, .T. ) ;
#264 = DIRECTION ( 'NONE',  ( 1.000000000000000000, 0.000000000000000000, 0.000000000000000000 ) ) ;
#265 =( NAMED_UNIT ( * ) PLANE_ANGLE_UNIT ( ) SI_UNIT ( $, .RADIAN. ) );
#266 = PERSON_AND_ORGANIZATION ( #102, #196 ) ;
#267 = EDGE_CURVE ( 'NONE', #95, #65, #220, .T. ) ;
#268 = DIRECTION ( 'NONE',  ( -1.000000000000000000, 0.000000000000000000, 1.110223024625156540E-16 ) ) ;
#269 = DIRECTION ( 'NONE',  ( -1.734723475976807094E-16, 1.000000000000000000, 0.000000000000000000 ) ) ;
#270 = APPLICATION_PROTOCOL_DEFINITION ( 'international standard', 'config_control_design', 1994, #29 ) ;
#271 = DIRECTION ( 'NONE',  ( -1.000000000000000000, 0.000000000000000000, 0.000000000000000000 ) ) ;
#272 = DIRECTION ( 'NONE',  ( 1.734723475976807094E-16, -1.000000000000000000, 0.000000000000000000 ) ) ;
#273 = VERTEX_POINT ( 'NONE', #197 ) ;
#274 = AXIS2_PLACEMENT_3D ( 'NONE', #127, #182, #23 ) ;
#275 = CARTESIAN_POINT ( 'NONE',  ( 10.00000000000000178, 12.50000000000000000, 10.00000000000000000 ) ) ;
#276 = VECTOR ( 'NONE', #214, 1000.000000000000000 ) ;
#277 = EDGE_LOOP ( 'NONE', ( #116, #52, #238, #31 ) ) ;
ENDSEC;
END-ISO-10303-21;
