ISO-10303-21;
HEADER;
FILE_DESCRIPTION (( 'STEP AP214' ),
    '1' );
FILE_NAME ('260006.STEP',
    '2019-07-15T03:15:43',
    ( '' ),
    ( '' ),
    'SwSTEP 2.0',
    'SolidWorks 2016',
    '' );
FILE_SCHEMA (( 'AUTOMOTIVE_DESIGN' ));
ENDSEC;

DATA;
#1 = AXIS2_PLACEMENT_3D ( 'NONE', #99, #35, #123 ) ;
#2 = DIRECTION ( 'NONE',  ( -1.000000000000000000, -0.0000000000000000000, -0.0000000000000000000 ) ) ;
#3 =( NAMED_UNIT ( * ) SI_UNIT ( $, .STERADIAN. ) SOLID_ANGLE_UNIT ( ) );
#4 = DIRECTION ( 'NONE',  ( 0.0000000000000000000, 0.0000000000000000000, 1.000000000000000000 ) ) ;
#5 = CARTESIAN_POINT ( 'NONE',  ( 0.0000000000000000000, 0.0000000000000000000, 0.0000000000000000000 ) ) ;
#6 = FACE_OUTER_BOUND ( 'NONE', #96, .T. ) ;
#7 = VERTEX_POINT ( 'NONE', #119 ) ;
#8 = UNCERTAINTY_MEASURE_WITH_UNIT (LENGTH_MEASURE( 1.000000000000000100E-005 ), #136, 'distance_accuracy_value', 'NONE');
#9 = ORIENTED_EDGE ( 'NONE', *, *, #47, .F. ) ;
#10 = SHAPE_DEFINITION_REPRESENTATION ( #12, #116 ) ;
#11 = ORIENTED_EDGE ( 'NONE', *, *, #33, .T. ) ;
#12 = PRODUCT_DEFINITION_SHAPE ( 'NONE', 'NONE',  #127 ) ;
#13 = DIRECTION ( 'NONE',  ( -0.0000000000000000000, 0.0000000000000000000, 1.000000000000000000 ) ) ;
#14 = DIRECTION ( 'NONE',  ( 0.0000000000000000000, 0.0000000000000000000, 1.000000000000000000 ) ) ;
#15 = DIRECTION ( 'NONE',  ( 0.0000000000000000000, 0.0000000000000000000, 1.000000000000000000 ) ) ;
#16 = FILL_AREA_STYLE_COLOUR ( '', #66 ) ;
#17 =( NAMED_UNIT ( * ) SI_UNIT ( $, .STERADIAN. ) SOLID_ANGLE_UNIT ( ) );
#18 = VERTEX_POINT ( 'NONE', #110 ) ;
#19 = PRODUCT_DEFINITION_FORMATION_WITH_SPECIFIED_SOURCE ( 'ÈÎºÎ', '', #40, .NOT_KNOWN. ) ;
#20 = ORIENTED_EDGE ( 'NONE', *, *, #86, .F. ) ;
#21 = FACE_OUTER_BOUND ( 'NONE', #79, .T. ) ;
#22 = FACE_OUTER_BOUND ( 'NONE', #94, .T. ) ;
#23 = CARTESIAN_POINT ( 'NONE',  ( 169.3338679950603900, 51.52878623267178400, 0.0000000000000000000 ) ) ;
#24 = ADVANCED_FACE ( 'NONE', ( #21 ), #140, .T. ) ;
#25 = UNCERTAINTY_MEASURE_WITH_UNIT (LENGTH_MEASURE( 1.000000000000000100E-005 ), #85, 'distance_accuracy_value', 'NONE');
#26 = CARTESIAN_POINT ( 'NONE',  ( 175.4186647065078800, 51.52878623267178400, -9.999999999998996400 ) ) ;
#27 = SURFACE_STYLE_USAGE ( .BOTH. , #113 ) ;
#28 = DIRECTION ( 'NONE',  ( 1.000000000000000000, 0.0000000000000000000, 0.0000000000000000000 ) ) ;
#29 = FILL_AREA_STYLE ('',( #42 ) ) ;
#30 = STYLED_ITEM ( 'NONE', ( #78 ), #116 ) ;
#31 = VECTOR ( 'NONE', #61, 1000.000000000000000 ) ;
#32 = FACE_OUTER_BOUND ( 'NONE', #118, .T. ) ;
#33 = EDGE_CURVE ( 'NONE', #51, #18, #46, .T. ) ;
#34 = ORIENTED_EDGE ( 'NONE', *, *, #49, .F. ) ;
#35 = DIRECTION ( 'NONE',  ( -1.000000000000000000, -0.0000000000000000000, -0.0000000000000000000 ) ) ;
#36 = ADVANCED_FACE ( 'NONE', ( #32 ), #52, .F. ) ;
#37 = ORIENTED_EDGE ( 'NONE', *, *, #103, .F. ) ;
#38 = PRESENTATION_LAYER_ASSIGNMENT (  '', '', ( #121 ) ) ;
#39 = DIRECTION ( 'NONE',  ( 0.0000000000000000000, 0.0000000000000000000, 1.000000000000000000 ) ) ;
#40 = PRODUCT ( '260006', '260006', '', ( #126 ) ) ;
#41 = SURFACE_STYLE_USAGE ( .BOTH. , #114 ) ;
#42 = FILL_AREA_STYLE_COLOUR ( '', #71 ) ;
#43 = AXIS2_PLACEMENT_3D ( 'NONE', #106, #60, #131 ) ;
#44 = ORIENTED_EDGE ( 'NONE', *, *, #81, .F. ) ;
#45 = ORIENTED_EDGE ( 'NONE', *, *, #103, .T. ) ;
#46 = LINE ( 'NONE', #70, #90 ) ;
#47 = EDGE_CURVE ( 'NONE', #7, #51, #117, .T. ) ;
#48 = CARTESIAN_POINT ( 'NONE',  ( 173.4186647065080800, 51.52878623267178400, 0.0000000000000000000 ) ) ;
#49 = EDGE_CURVE ( 'NONE', #75, #18, #87, .T. ) ;
#50 = DIRECTION ( 'NONE',  ( -1.000000000000000000, -0.0000000000000000000, -0.0000000000000000000 ) ) ;
#51 = VERTEX_POINT ( 'NONE', #26 ) ;
#52 = PLANE ( 'NONE',  #95 ) ;
#53 =( GEOMETRIC_REPRESENTATION_CONTEXT ( 3 ) GLOBAL_UNCERTAINTY_ASSIGNED_CONTEXT ( ( #25 ) ) GLOBAL_UNIT_ASSIGNED_CONTEXT ( ( #85, #74, #3 ) ) REPRESENTATION_CONTEXT ( 'NONE', 'WORKASPACE' ) );
#54 =( LENGTH_UNIT ( ) NAMED_UNIT ( * ) SI_UNIT ( .MILLI., .METRE. ) );
#55 = APPLICATION_CONTEXT ( 'automotive_design' ) ;
#56 = AXIS2_PLACEMENT_3D ( 'NONE', #108, #133, #80 ) ;
#57 = SURFACE_STYLE_FILL_AREA ( #101 ) ;
#58 = AXIS2_PLACEMENT_3D ( 'NONE', #112, #135, #39 ) ;
#59 = DIRECTION ( 'NONE',  ( -1.000000000000000000, -0.0000000000000000000, -0.0000000000000000000 ) ) ;
#60 = DIRECTION ( 'NONE',  ( 1.000000000000000000, 0.0000000000000000000, 0.0000000000000000000 ) ) ;
#61 = DIRECTION ( 'NONE',  ( -1.000000000000000000, -0.0000000000000000000, -0.0000000000000000000 ) ) ;
#62 = APPLICATION_PROTOCOL_DEFINITION ( 'draft international standard', 'automotive_design', 1998, #55 ) ;
#63 = CIRCLE ( 'NONE', #56, 9.999999999998996400 ) ;
#64 = AXIS2_PLACEMENT_3D ( 'NONE', #48, #50, #68 ) ;
#65 = ORIENTED_EDGE ( 'NONE', *, *, #81, .T. ) ;
#66 = COLOUR_RGB ( '',1.000000000000000000, 1.000000000000000000, 1.000000000000000000 ) ;
#67 = AXIS2_PLACEMENT_3D ( 'NONE', #88, #73, #14 ) ;
#68 = DIRECTION ( 'NONE',  ( 0.0000000000000000000, 0.0000000000000000000, 1.000000000000000000 ) ) ;
#69 = ADVANCED_FACE ( 'NONE', ( #6 ), #98, .F. ) ;
#70 = CARTESIAN_POINT ( 'NONE',  ( 169.3338679950603900, 51.52878623267178400, -9.999999999998996400 ) ) ;
#71 = COLOUR_RGB ( '',1.000000000000000000, 1.000000000000000000, 1.000000000000000000 ) ;
#72 = ORIENTED_EDGE ( 'NONE', *, *, #86, .T. ) ;
#73 = DIRECTION ( 'NONE',  ( -1.000000000000000000, -0.0000000000000000000, -0.0000000000000000000 ) ) ;
#74 =( NAMED_UNIT ( * ) PLANE_ANGLE_UNIT ( ) SI_UNIT ( $, .RADIAN. ) );
#75 = VERTEX_POINT ( 'NONE', #122 ) ;
#76 =( NAMED_UNIT ( * ) PLANE_ANGLE_UNIT ( ) SI_UNIT ( $, .RADIAN. ) );
#77 = PRESENTATION_LAYER_ASSIGNMENT (  '', '', ( #30 ) ) ;
#78 = PRESENTATION_STYLE_ASSIGNMENT (( #41 ) ) ;
#79 = EDGE_LOOP ( 'NONE', ( #125, #65, #45, #20 ) ) ;
#80 = DIRECTION ( 'NONE',  ( 0.0000000000000000000, 0.0000000000000000000, 1.000000000000000000 ) ) ;
#81 = EDGE_CURVE ( 'NONE', #51, #7, #115, .T. ) ;
#82 = DIRECTION ( 'NONE',  ( -1.000000000000000000, 0.0000000000000000000, -0.0000000000000000000 ) ) ;
#83 =( GEOMETRIC_REPRESENTATION_CONTEXT ( 3 ) GLOBAL_UNCERTAINTY_ASSIGNED_CONTEXT ( ( #107 ) ) GLOBAL_UNIT_ASSIGNED_CONTEXT ( ( #54, #76, #100 ) ) REPRESENTATION_CONTEXT ( 'NONE', 'WORKASPACE' ) );
#84 =( NAMED_UNIT ( * ) PLANE_ANGLE_UNIT ( ) SI_UNIT ( $, .RADIAN. ) );
#85 =( LENGTH_UNIT ( ) NAMED_UNIT ( * ) SI_UNIT ( .MILLI., .METRE. ) );
#86 = EDGE_CURVE ( 'NONE', #18, #75, #63, .T. ) ;
#87 = CIRCLE ( 'NONE', #64, 9.999999999998996400 ) ;
#88 = CARTESIAN_POINT ( 'NONE',  ( 175.4186647065078800, 51.52878623267178400, 0.0000000000000000000 ) ) ;
#89 =( GEOMETRIC_REPRESENTATION_CONTEXT ( 3 ) GLOBAL_UNCERTAINTY_ASSIGNED_CONTEXT ( ( #8 ) ) GLOBAL_UNIT_ASSIGNED_CONTEXT ( ( #136, #84, #17 ) ) REPRESENTATION_CONTEXT ( 'NONE', 'WORKASPACE' ) );
#90 = VECTOR ( 'NONE', #59, 1000.000000000000000 ) ;
#91 = CLOSED_SHELL ( 'NONE', ( #132, #36, #24, #69 ) ) ;
#92 = APPLICATION_CONTEXT ( 'automotive_design' ) ;
#93 = AXIS2_PLACEMENT_3D ( 'NONE', #5, #4, #28 ) ;
#94 = EDGE_LOOP ( 'NONE', ( #128, #11, #34, #37 ) ) ;
#95 = AXIS2_PLACEMENT_3D ( 'NONE', #130, #82, #13 ) ;
#96 = EDGE_LOOP ( 'NONE', ( #97, #72 ) ) ;
#97 = ORIENTED_EDGE ( 'NONE', *, *, #49, .T. ) ;
#98 = PLANE ( 'NONE',  #43 ) ;
#99 = CARTESIAN_POINT ( 'NONE',  ( 175.4186647065078800, 51.52878623267178400, 0.0000000000000000000 ) ) ;
#100 =( NAMED_UNIT ( * ) SI_UNIT ( $, .STERADIAN. ) SOLID_ANGLE_UNIT ( ) );
#101 = FILL_AREA_STYLE ('',( #16 ) ) ;
#102 = LINE ( 'NONE', #120, #31 ) ;
#103 = EDGE_CURVE ( 'NONE', #7, #75, #102, .T. ) ;
#104 = SURFACE_STYLE_FILL_AREA ( #29 ) ;
#105 = PRODUCT_RELATED_PRODUCT_CATEGORY ( 'part', '', ( #40 ) ) ;
#106 = CARTESIAN_POINT ( 'NONE',  ( 173.4186647065080800, 51.52878623267178400, 0.0000000000000000000 ) ) ;
#107 = UNCERTAINTY_MEASURE_WITH_UNIT (LENGTH_MEASURE( 1.000000000000000100E-005 ), #54, 'distance_accuracy_value', 'NONE');
#108 = CARTESIAN_POINT ( 'NONE',  ( 173.4186647065080800, 51.52878623267178400, 0.0000000000000000000 ) ) ;
#109 = AXIS2_PLACEMENT_3D ( 'NONE', #23, #2, #15 ) ;
#110 = CARTESIAN_POINT ( 'NONE',  ( 173.4186647065080800, 51.52878623267178400, -9.999999999998996400 ) ) ;
#111 = PRESENTATION_STYLE_ASSIGNMENT (( #27 ) ) ;
#112 = CARTESIAN_POINT ( 'NONE',  ( 169.3338679950603900, 51.52878623267178400, 0.0000000000000000000 ) ) ;
#113 = SURFACE_SIDE_STYLE ('',( #104 ) ) ;
#114 = SURFACE_SIDE_STYLE ('',( #57 ) ) ;
#115 = CIRCLE ( 'NONE', #67, 9.999999999998996400 ) ;
#116 = ADVANCED_BREP_SHAPE_REPRESENTATION ( '260006', ( #138, #93 ), #89 ) ;
#117 = CIRCLE ( 'NONE', #1, 9.999999999998996400 ) ;
#118 = EDGE_LOOP ( 'NONE', ( #9, #44 ) ) ;
#119 = CARTESIAN_POINT ( 'NONE',  ( 175.4186647065078800, 51.52878623267178400, 9.999999999998996400 ) ) ;
#120 = CARTESIAN_POINT ( 'NONE',  ( 169.3338679950603900, 51.52878623267178400, 9.999999999998996400 ) ) ;
#121 = STYLED_ITEM ( 'NONE', ( #111 ), #138 ) ;
#122 = CARTESIAN_POINT ( 'NONE',  ( 173.4186647065080800, 51.52878623267178400, 9.999999999998996400 ) ) ;
#123 = DIRECTION ( 'NONE',  ( 0.0000000000000000000, 0.0000000000000000000, 1.000000000000000000 ) ) ;
#124 = MECHANICAL_DESIGN_GEOMETRIC_PRESENTATION_REPRESENTATION (  '', ( #30 ), #83 ) ;
#125 = ORIENTED_EDGE ( 'NONE', *, *, #33, .F. ) ;
#126 = PRODUCT_CONTEXT ( 'NONE', #55, 'mechanical' ) ;
#127 = PRODUCT_DEFINITION ( 'Î´Öª', '', #19, #139 ) ;
#128 = ORIENTED_EDGE ( 'NONE', *, *, #47, .T. ) ;
#129 = MECHANICAL_DESIGN_GEOMETRIC_PRESENTATION_REPRESENTATION (  '', ( #121 ), #53 ) ;
#130 = CARTESIAN_POINT ( 'NONE',  ( 175.4186647065078800, 51.52878623267178400, 0.0000000000000000000 ) ) ;
#131 = DIRECTION ( 'NONE',  ( 0.0000000000000000000, 0.0000000000000000000, -1.000000000000000000 ) ) ;
#132 = ADVANCED_FACE ( 'NONE', ( #22 ), #134, .T. ) ;
#133 = DIRECTION ( 'NONE',  ( -1.000000000000000000, -0.0000000000000000000, -0.0000000000000000000 ) ) ;
#134 = CYLINDRICAL_SURFACE ( 'NONE', #58, 9.999999999998996400 ) ;
#135 = DIRECTION ( 'NONE',  ( -1.000000000000000000, -0.0000000000000000000, -0.0000000000000000000 ) ) ;
#136 =( LENGTH_UNIT ( ) NAMED_UNIT ( * ) SI_UNIT ( .MILLI., .METRE. ) );
#137 = APPLICATION_PROTOCOL_DEFINITION ( 'draft international standard', 'automotive_design', 1998, #92 ) ;
#138 = MANIFOLD_SOLID_BREP ( 'Ðý×ª1', #91 ) ;
#139 = PRODUCT_DEFINITION_CONTEXT ( 'detailed design', #92, 'design' ) ;
#140 = CYLINDRICAL_SURFACE ( 'NONE', #109, 9.999999999998996400 ) ;
ENDSEC;
END-ISO-10303-21;
