ISO-10303-21;
HEADER;
FILE_DESCRIPTION (( 'STEP AP214' ),
    '1' );
FILE_NAME ('258508.STEP',
    '2019-08-07T01:48:07',
    ( 'user' ),
    ( 'Î¢ÈíÖÐ¹ú' ),
    'SwSTEP 2.0',
    'SolidWorks 2016',
    '' );
FILE_SCHEMA (( 'AUTOMOTIVE_DESIGN' ));
ENDSEC;

DATA;
#1 = CARTESIAN_POINT ( 'NONE',  ( 0.0000000000000000000, 0.0000000000000000000, 0.0000000000000000000 ) ) ;
#2 = FACE_OUTER_BOUND ( 'NONE', #78, .T. ) ;
#3 = CARTESIAN_POINT ( 'NONE',  ( -54.99999999999998600, 0.0000000000000000000, 59.99999999999997900 ) ) ;
#4 = UNCERTAINTY_MEASURE_WITH_UNIT (LENGTH_MEASURE( 1.000000000000000100E-005 ), #127, 'distance_accuracy_value', 'NONE');
#5 = PRODUCT_RELATED_PRODUCT_CATEGORY ( 'part', '', ( #140 ) ) ;
#6 = EDGE_LOOP ( 'NONE', ( #199, #117, #126, #158 ) ) ;
#7 = CLOSED_SHELL ( 'NONE', ( #106, #35, #192, #52, #122, #178 ) ) ;
#8 = LINE ( 'NONE', #96, #163 ) ;
#9 = VECTOR ( 'NONE', #131, 1000.000000000000000 ) ;
#10 = ORIENTED_EDGE ( 'NONE', *, *, #32, .T. ) ;
#11 = LINE ( 'NONE', #157, #43 ) ;
#12 = DIRECTION ( 'NONE',  ( 5.782411586589357400E-017, 0.0000000000000000000, 1.000000000000000000 ) ) ;
#13 = VERTEX_POINT ( 'NONE', #29 ) ;
#14 = CARTESIAN_POINT ( 'NONE',  ( -54.99999999999998600, 1.100000000000000100, 59.99999999999997900 ) ) ;
#15 = PLANE ( 'NONE',  #97 ) ;
#16 = ORIENTED_EDGE ( 'NONE', *, *, #110, .T. ) ;
#17 = VECTOR ( 'NONE', #139, 1000.000000000000000 ) ;
#18 = EDGE_LOOP ( 'NONE', ( #92, #75, #85, #176 ) ) ;
#19 = VERTEX_POINT ( 'NONE', #198 ) ;
#20 = DIRECTION ( 'NONE',  ( 1.000000000000000000, 0.0000000000000000000, -1.734723475976806800E-016 ) ) ;
#21 = LINE ( 'NONE', #40, #90 ) ;
#22 = ORIENTED_EDGE ( 'NONE', *, *, #170, .F. ) ;
#23 = AXIS2_PLACEMENT_3D ( 'NONE', #174, #64, #151 ) ;
#24 = MECHANICAL_DESIGN_GEOMETRIC_PRESENTATION_REPRESENTATION (  '', ( #108 ), #53 ) ;
#25 = LINE ( 'NONE', #82, #94 ) ;
#26 =( NAMED_UNIT ( * ) PLANE_ANGLE_UNIT ( ) SI_UNIT ( $, .RADIAN. ) );
#27 = PLANE ( 'NONE',  #185 ) ;
#28 = CARTESIAN_POINT ( 'NONE',  ( 55.00000000000001400, 1.100000000000000100, 59.99999999999997900 ) ) ;
#29 = CARTESIAN_POINT ( 'NONE',  ( 55.00000000000001400, 0.0000000000000000000, 59.99999999999997900 ) ) ;
#30 = DIRECTION ( 'NONE',  ( -1.000000000000000000, -0.0000000000000000000, -0.0000000000000000000 ) ) ;
#31 = ORIENTED_EDGE ( 'NONE', *, *, #170, .T. ) ;
#32 = EDGE_CURVE ( 'NONE', #152, #184, #150, .T. ) ;
#33 = ORIENTED_EDGE ( 'NONE', *, *, #145, .T. ) ;
#34 = CARTESIAN_POINT ( 'NONE',  ( -54.99999999999998600, 1.100000000000000100, 59.99999999999997900 ) ) ;
#35 = ADVANCED_FACE ( 'NONE', ( #197 ), #160, .F. ) ;
#36 = EDGE_LOOP ( 'NONE', ( #10, #22, #45, #33 ) ) ;
#37 = SURFACE_STYLE_USAGE ( .BOTH. , #144 ) ;
#38 = ORIENTED_EDGE ( 'NONE', *, *, #121, .T. ) ;
#39 = PRESENTATION_STYLE_ASSIGNMENT (( #37 ) ) ;
#40 = CARTESIAN_POINT ( 'NONE',  ( -55.00000000000000700, 0.0000000000000000000, -60.00000000000002100 ) ) ;
#41 = ORIENTED_EDGE ( 'NONE', *, *, #61, .T. ) ;
#42 = EDGE_CURVE ( 'NONE', #51, #48, #84, .T. ) ;
#43 = VECTOR ( 'NONE', #57, 1000.000000000000000 ) ;
#44 =( GEOMETRIC_REPRESENTATION_CONTEXT ( 3 ) GLOBAL_UNCERTAINTY_ASSIGNED_CONTEXT ( ( #4 ) ) GLOBAL_UNIT_ASSIGNED_CONTEXT ( ( #127, #26, #109 ) ) REPRESENTATION_CONTEXT ( 'NONE', 'WORKASPACE' ) );
#45 = ORIENTED_EDGE ( 'NONE', *, *, #121, .F. ) ;
#46 = COLOUR_RGB ( '',1.000000000000000000, 1.000000000000000000, 1.000000000000000000 ) ;
#47 = APPLICATION_PROTOCOL_DEFINITION ( 'draft international standard', 'automotive_design', 1998, #115 ) ;
#48 = VERTEX_POINT ( 'NONE', #28 ) ;
#49 = CARTESIAN_POINT ( 'NONE',  ( -55.00000000000000700, 1.100000000000000100, -60.00000000000002100 ) ) ;
#50 = CARTESIAN_POINT ( 'NONE',  ( 55.00000000000001400, 1.100000000000000100, 59.99999999999997900 ) ) ;
#51 = VERTEX_POINT ( 'NONE', #130 ) ;
#52 = ADVANCED_FACE ( 'NONE', ( #125 ), #15, .F. ) ;
#53 =( GEOMETRIC_REPRESENTATION_CONTEXT ( 3 ) GLOBAL_UNCERTAINTY_ASSIGNED_CONTEXT ( ( #93 ) ) GLOBAL_UNIT_ASSIGNED_CONTEXT ( ( #103, #190, #102 ) ) REPRESENTATION_CONTEXT ( 'NONE', 'WORKASPACE' ) );
#54 = FACE_OUTER_BOUND ( 'NONE', #36, .T. ) ;
#55 = DIRECTION ( 'NONE',  ( 0.0000000000000000000, -0.0000000000000000000, 1.000000000000000000 ) ) ;
#56 = FILL_AREA_STYLE ('',( #182 ) ) ;
#57 = DIRECTION ( 'NONE',  ( -5.782411586589357400E-017, -0.0000000000000000000, -1.000000000000000000 ) ) ;
#58 = CARTESIAN_POINT ( 'NONE',  ( -54.99999999999998600, 1.100000000000000100, 59.99999999999997900 ) ) ;
#59 = CARTESIAN_POINT ( 'NONE',  ( -55.00000000000000700, 0.0000000000000000000, -60.00000000000002100 ) ) ;
#60 = LINE ( 'NONE', #34, #17 ) ;
#61 = EDGE_CURVE ( 'NONE', #13, #19, #11, .T. ) ;
#62 =( NAMED_UNIT ( * ) SI_UNIT ( $, .STERADIAN. ) SOLID_ANGLE_UNIT ( ) );
#63 = FACE_OUTER_BOUND ( 'NONE', #161, .T. ) ;
#64 = DIRECTION ( 'NONE',  ( 0.0000000000000000000, 1.000000000000000000, 0.0000000000000000000 ) ) ;
#65 = AXIS2_PLACEMENT_3D ( 'NONE', #1, #113, #200 ) ;
#66 = DIRECTION ( 'NONE',  ( -5.782411586589357400E-017, -0.0000000000000000000, -1.000000000000000000 ) ) ;
#67 = DIRECTION ( 'NONE',  ( 1.000000000000000000, 0.0000000000000000000, -0.0000000000000000000 ) ) ;
#68 = VECTOR ( 'NONE', #146, 1000.000000000000000 ) ;
#69 = EDGE_LOOP ( 'NONE', ( #120, #172, #71, #31 ) ) ;
#70 = DIRECTION ( 'NONE',  ( -0.0000000000000000000, -1.000000000000000000, -0.0000000000000000000 ) ) ;
#71 = ORIENTED_EDGE ( 'NONE', *, *, #42, .F. ) ;
#72 = AXIS2_PLACEMENT_3D ( 'NONE', #181, #154, #55 ) ;
#73 = APPLICATION_PROTOCOL_DEFINITION ( 'draft international standard', 'automotive_design', 1998, #189 ) ;
#74 =( LENGTH_UNIT ( ) NAMED_UNIT ( * ) SI_UNIT ( .MILLI., .METRE. ) );
#75 = ORIENTED_EDGE ( 'NONE', *, *, #101, .F. ) ;
#76 =( GEOMETRIC_REPRESENTATION_CONTEXT ( 3 ) GLOBAL_UNCERTAINTY_ASSIGNED_CONTEXT ( ( #169 ) ) GLOBAL_UNIT_ASSIGNED_CONTEXT ( ( #74, #173, #62 ) ) REPRESENTATION_CONTEXT ( 'NONE', 'WORKASPACE' ) );
#77 = SURFACE_STYLE_FILL_AREA ( #56 ) ;
#78 = EDGE_LOOP ( 'NONE', ( #41, #180, #107, #167 ) ) ;
#79 = PLANE ( 'NONE',  #72 ) ;
#80 = CARTESIAN_POINT ( 'NONE',  ( 55.00000000000000700, 1.100000000000000100, -60.00000000000002100 ) ) ;
#81 = LINE ( 'NONE', #194, #143 ) ;
#82 = CARTESIAN_POINT ( 'NONE',  ( 55.00000000000000700, 1.100000000000000100, -60.00000000000002100 ) ) ;
#83 = PRESENTATION_STYLE_ASSIGNMENT (( #202 ) ) ;
#84 = LINE ( 'NONE', #58, #164 ) ;
#85 = ORIENTED_EDGE ( 'NONE', *, *, #32, .F. ) ;
#86 = CARTESIAN_POINT ( 'NONE',  ( 55.00000000000000700, 1.100000000000000100, -60.00000000000002100 ) ) ;
#87 = FACE_OUTER_BOUND ( 'NONE', #18, .T. ) ;
#88 = PRODUCT_CONTEXT ( 'NONE', #115, 'mechanical' ) ;
#89 = FILL_AREA_STYLE ('',( #105 ) ) ;
#90 = VECTOR ( 'NONE', #30, 1000.000000000000000 ) ;
#91 = PLANE ( 'NONE',  #23 ) ;
#92 = ORIENTED_EDGE ( 'NONE', *, *, #61, .F. ) ;
#93 = UNCERTAINTY_MEASURE_WITH_UNIT (LENGTH_MEASURE( 1.000000000000000100E-005 ), #103, 'distance_accuracy_value', 'NONE');
#94 = VECTOR ( 'NONE', #66, 1000.000000000000000 ) ;
#95 = DIRECTION ( 'NONE',  ( 1.734723475976807100E-016, 0.0000000000000000000, 1.000000000000000000 ) ) ;
#96 = CARTESIAN_POINT ( 'NONE',  ( -55.00000000000000700, 1.100000000000000100, -60.00000000000002100 ) ) ;
#97 = AXIS2_PLACEMENT_3D ( 'NONE', #14, #98, #195 ) ;
#98 = DIRECTION ( 'NONE',  ( 0.0000000000000000000, 0.0000000000000000000, -1.000000000000000000 ) ) ;
#99 = CARTESIAN_POINT ( 'NONE',  ( -55.00000000000000700, 1.100000000000000100, -60.00000000000002100 ) ) ;
#100 = VECTOR ( 'NONE', #70, 1000.000000000000000 ) ;
#101 = EDGE_CURVE ( 'NONE', #184, #13, #156, .T. ) ;
#102 =( NAMED_UNIT ( * ) SI_UNIT ( $, .STERADIAN. ) SOLID_ANGLE_UNIT ( ) );
#103 =( LENGTH_UNIT ( ) NAMED_UNIT ( * ) SI_UNIT ( .MILLI., .METRE. ) );
#104 = DIRECTION ( 'NONE',  ( -1.734723475976806800E-016, 0.0000000000000000000, -1.000000000000000000 ) ) ;
#105 = FILL_AREA_STYLE_COLOUR ( '', #186 ) ;
#106 = ADVANCED_FACE ( 'NONE', ( #2 ), #27, .F. ) ;
#107 = ORIENTED_EDGE ( 'NONE', *, *, #135, .F. ) ;
#108 = STYLED_ITEM ( 'NONE', ( #83 ), #129 ) ;
#109 =( NAMED_UNIT ( * ) SI_UNIT ( $, .STERADIAN. ) SOLID_ANGLE_UNIT ( ) );
#110 = EDGE_CURVE ( 'NONE', #123, #177, #8, .T. ) ;
#111 = DIRECTION ( 'NONE',  ( -1.000000000000000000, 0.0000000000000000000, 5.782411586589357400E-017 ) ) ;
#112 = AXIS2_PLACEMENT_3D ( 'NONE', #99, #183, #67 ) ;
#113 = DIRECTION ( 'NONE',  ( 0.0000000000000000000, 0.0000000000000000000, 1.000000000000000000 ) ) ;
#114 = ORIENTED_EDGE ( 'NONE', *, *, #135, .T. ) ;
#115 = APPLICATION_CONTEXT ( 'automotive_design' ) ;
#116 = MANIFOLD_SOLID_BREP ( 'Í¹Ì¨-À­Éì1', #7 ) ;
#117 = ORIENTED_EDGE ( 'NONE', *, *, #145, .F. ) ;
#118 = PLANE ( 'NONE',  #132 ) ;
#119 = DIRECTION ( 'NONE',  ( -0.0000000000000000000, -1.000000000000000000, -0.0000000000000000000 ) ) ;
#120 = ORIENTED_EDGE ( 'NONE', *, *, #101, .T. ) ;
#121 = EDGE_CURVE ( 'NONE', #177, #51, #81, .T. ) ;
#122 = ADVANCED_FACE ( 'NONE', ( #63 ), #79, .T. ) ;
#123 = VERTEX_POINT ( 'NONE', #155 ) ;
#124 = SURFACE_STYLE_FILL_AREA ( #89 ) ;
#125 = FACE_OUTER_BOUND ( 'NONE', #69, .T. ) ;
#126 = ORIENTED_EDGE ( 'NONE', *, *, #110, .F. ) ;
#127 =( LENGTH_UNIT ( ) NAMED_UNIT ( * ) SI_UNIT ( .MILLI., .METRE. ) );
#128 = DIRECTION ( 'NONE',  ( -1.000000000000000000, -0.0000000000000000000, -0.0000000000000000000 ) ) ;
#129 = ADVANCED_BREP_SHAPE_REPRESENTATION ( '258508', ( #116, #65 ), #76 ) ;
#130 = CARTESIAN_POINT ( 'NONE',  ( -54.99999999999998600, 1.100000000000000100, 59.99999999999997900 ) ) ;
#131 = DIRECTION ( 'NONE',  ( 1.734723475976807100E-016, 0.0000000000000000000, 1.000000000000000000 ) ) ;
#132 = AXIS2_PLACEMENT_3D ( 'NONE', #49, #20, #104 ) ;
#133 = LINE ( 'NONE', #50, #175 ) ;
#134 = PRESENTATION_LAYER_ASSIGNMENT (  '', '', ( #108 ) ) ;
#135 = EDGE_CURVE ( 'NONE', #48, #123, #25, .T. ) ;
#136 = PRESENTATION_LAYER_ASSIGNMENT (  '', '', ( #201 ) ) ;
#137 = SURFACE_SIDE_STYLE ('',( #124 ) ) ;
#138 = LINE ( 'NONE', #86, #100 ) ;
#139 = DIRECTION ( 'NONE',  ( -0.0000000000000000000, -1.000000000000000000, -0.0000000000000000000 ) ) ;
#140 = PRODUCT ( '258508', '258508', '', ( #88 ) ) ;
#141 = PRODUCT_DEFINITION_SHAPE ( 'NONE', 'NONE',  #149 ) ;
#142 = EDGE_CURVE ( 'NONE', #123, #19, #138, .T. ) ;
#143 = VECTOR ( 'NONE', #95, 1000.000000000000000 ) ;
#144 = SURFACE_SIDE_STYLE ('',( #77 ) ) ;
#145 = EDGE_CURVE ( 'NONE', #177, #152, #188, .T. ) ;
#146 = DIRECTION ( 'NONE',  ( 1.000000000000000000, 0.0000000000000000000, 0.0000000000000000000 ) ) ;
#147 = CARTESIAN_POINT ( 'NONE',  ( -54.99999999999998600, 0.0000000000000000000, 59.99999999999997900 ) ) ;
#148 = EDGE_CURVE ( 'NONE', #19, #152, #21, .T. ) ;
#149 = PRODUCT_DEFINITION ( 'Î´Öª', '', #196, #168 ) ;
#150 = LINE ( 'NONE', #59, #9 ) ;
#151 = DIRECTION ( 'NONE',  ( 0.0000000000000000000, -0.0000000000000000000, 1.000000000000000000 ) ) ;
#152 = VERTEX_POINT ( 'NONE', #187 ) ;
#153 = EDGE_CURVE ( 'NONE', #48, #13, #133, .T. ) ;
#154 = DIRECTION ( 'NONE',  ( 0.0000000000000000000, 1.000000000000000000, 0.0000000000000000000 ) ) ;
#155 = CARTESIAN_POINT ( 'NONE',  ( 55.00000000000000700, 1.100000000000000100, -60.00000000000002100 ) ) ;
#156 = LINE ( 'NONE', #147, #68 ) ;
#157 = CARTESIAN_POINT ( 'NONE',  ( 55.00000000000000700, 0.0000000000000000000, -60.00000000000002100 ) ) ;
#158 = ORIENTED_EDGE ( 'NONE', *, *, #142, .T. ) ;
#159 = DIRECTION ( 'NONE',  ( 1.000000000000000000, 0.0000000000000000000, 0.0000000000000000000 ) ) ;
#160 = PLANE ( 'NONE',  #112 ) ;
#161 = EDGE_LOOP ( 'NONE', ( #114, #16, #38, #166 ) ) ;
#162 = CARTESIAN_POINT ( 'NONE',  ( -55.00000000000000700, 1.100000000000000100, -60.00000000000002100 ) ) ;
#163 = VECTOR ( 'NONE', #128, 1000.000000000000000 ) ;
#164 = VECTOR ( 'NONE', #159, 1000.000000000000000 ) ;
#165 = DIRECTION ( 'NONE',  ( -0.0000000000000000000, -1.000000000000000000, -0.0000000000000000000 ) ) ;
#166 = ORIENTED_EDGE ( 'NONE', *, *, #42, .T. ) ;
#167 = ORIENTED_EDGE ( 'NONE', *, *, #153, .T. ) ;
#168 = PRODUCT_DEFINITION_CONTEXT ( 'detailed design', #189, 'design' ) ;
#169 = UNCERTAINTY_MEASURE_WITH_UNIT (LENGTH_MEASURE( 1.000000000000000100E-005 ), #74, 'distance_accuracy_value', 'NONE');
#170 = EDGE_CURVE ( 'NONE', #51, #184, #60, .T. ) ;
#171 = SHAPE_DEFINITION_REPRESENTATION ( #141, #129 ) ;
#172 = ORIENTED_EDGE ( 'NONE', *, *, #153, .F. ) ;
#173 =( NAMED_UNIT ( * ) PLANE_ANGLE_UNIT ( ) SI_UNIT ( $, .RADIAN. ) );
#174 = CARTESIAN_POINT ( 'NONE',  ( 0.0000000000000000000, 0.0000000000000000000, 0.0000000000000000000 ) ) ;
#175 = VECTOR ( 'NONE', #119, 1000.000000000000000 ) ;
#176 = ORIENTED_EDGE ( 'NONE', *, *, #148, .F. ) ;
#177 = VERTEX_POINT ( 'NONE', #191 ) ;
#178 = ADVANCED_FACE ( 'NONE', ( #87 ), #91, .F. ) ;
#179 = VECTOR ( 'NONE', #165, 1000.000000000000000 ) ;
#180 = ORIENTED_EDGE ( 'NONE', *, *, #142, .F. ) ;
#181 = CARTESIAN_POINT ( 'NONE',  ( 0.0000000000000000000, 1.100000000000000100, 0.0000000000000000000 ) ) ;
#182 = FILL_AREA_STYLE_COLOUR ( '', #46 ) ;
#183 = DIRECTION ( 'NONE',  ( 0.0000000000000000000, 0.0000000000000000000, 1.000000000000000000 ) ) ;
#184 = VERTEX_POINT ( 'NONE', #3 ) ;
#185 = AXIS2_PLACEMENT_3D ( 'NONE', #80, #111, #12 ) ;
#186 = COLOUR_RGB ( '',1.000000000000000000, 1.000000000000000000, 1.000000000000000000 ) ;
#187 = CARTESIAN_POINT ( 'NONE',  ( -55.00000000000000700, 0.0000000000000000000, -60.00000000000002100 ) ) ;
#188 = LINE ( 'NONE', #162, #179 ) ;
#189 = APPLICATION_CONTEXT ( 'automotive_design' ) ;
#190 =( NAMED_UNIT ( * ) PLANE_ANGLE_UNIT ( ) SI_UNIT ( $, .RADIAN. ) );
#191 = CARTESIAN_POINT ( 'NONE',  ( -55.00000000000000700, 1.100000000000000100, -60.00000000000002100 ) ) ;
#192 = ADVANCED_FACE ( 'NONE', ( #54 ), #118, .F. ) ;
#193 = MECHANICAL_DESIGN_GEOMETRIC_PRESENTATION_REPRESENTATION (  '', ( #201 ), #44 ) ;
#194 = CARTESIAN_POINT ( 'NONE',  ( -55.00000000000000700, 1.100000000000000100, -60.00000000000002100 ) ) ;
#195 = DIRECTION ( 'NONE',  ( -1.000000000000000000, 0.0000000000000000000, -0.0000000000000000000 ) ) ;
#196 = PRODUCT_DEFINITION_FORMATION_WITH_SPECIFIED_SOURCE ( 'ÈÎºÎ', '', #140, .NOT_KNOWN. ) ;
#197 = FACE_OUTER_BOUND ( 'NONE', #6, .T. ) ;
#198 = CARTESIAN_POINT ( 'NONE',  ( 55.00000000000000700, 0.0000000000000000000, -60.00000000000002100 ) ) ;
#199 = ORIENTED_EDGE ( 'NONE', *, *, #148, .T. ) ;
#200 = DIRECTION ( 'NONE',  ( 1.000000000000000000, 0.0000000000000000000, 0.0000000000000000000 ) ) ;
#201 = STYLED_ITEM ( 'NONE', ( #39 ), #116 ) ;
#202 = SURFACE_STYLE_USAGE ( .BOTH. , #137 ) ;
ENDSEC;
END-ISO-10303-21;
