ISO-10303-21;
HEADER;
FILE_DESCRIPTION (( 'STEP AP203' ),
    '1' );
FILE_NAME ('160005.STEP',
    '2019-06-05T05:46:25',
    ( '' ),
    ( '' ),
    'SwSTEP 2.0',
    'SolidWorks 2016',
    '' );
FILE_SCHEMA (( 'CONFIG_CONTROL_DESIGN' ));
ENDSEC;

DATA;
#1 = PERSON_AND_ORGANIZATION_ROLE ( 'design_owner' ) ;
#2 = CARTESIAN_POINT ( 'NONE',  ( 0.0000000000000000000, 0.0000000000000000000, 0.0000000000000000000 ) ) ;
#3 = ORIENTED_EDGE ( 'NONE', *, *, #12, .T. ) ;
#4 = DESIGN_CONTEXT ( 'detailed design', #15, 'design' ) ;
#5 = APPROVAL ( #72, 'Î´Ö¸¶¨' ) ;
#6 = PERSON_AND_ORGANIZATION_ROLE ( 'creator' ) ;
#7 = APPLICATION_CONTEXT ( 'configuration controlled 3d designs of mechanical parts and assemblies' ) ;
#8 = EDGE_CURVE ( 'NONE', #79, #61, #40, .T. ) ;
#9 = APPROVAL_DATE_TIME ( #105, #80 ) ;
#10 = MANIFOLD_SOLID_BREP ( 'Ðý×ª2', #200 ) ;
#11 = CALENDAR_DATE ( 2019, 5, 6 ) ;
#12 = EDGE_CURVE ( 'NONE', #79, #61, #123, .T. ) ;
#13 = CC_DESIGN_PERSON_AND_ORGANIZATION_ASSIGNMENT ( #91, #198, ( #27 ) ) ;
#14 = ORIENTED_EDGE ( 'NONE', *, *, #12, .F. ) ;
#15 = APPLICATION_CONTEXT ( 'configuration controlled 3d designs of mechanical parts and assemblies' ) ;
#16 =( NAMED_UNIT ( * ) PLANE_ANGLE_UNIT ( ) SI_UNIT ( $, .RADIAN. ) );
#17 = LOCAL_TIME ( 13, 46, 25.00000000000000000, #118 ) ;
#18 = LOCAL_TIME ( 13, 46, 25.00000000000000000, #175 ) ;
#19 = COORDINATED_UNIVERSAL_TIME_OFFSET ( 8, 0, .AHEAD. ) ;
#20 = DATE_TIME_ROLE ( 'classification_date' ) ;
#21 = CALENDAR_DATE ( 2019, 5, 6 ) ;
#22 = SECURITY_CLASSIFICATION_LEVEL ( 'unclassified' ) ;
#23 = COORDINATED_UNIVERSAL_TIME_OFFSET ( 8, 0, .AHEAD. ) ;
#24 = AXIS2_PLACEMENT_3D ( 'NONE', #146, #94, #48 ) ;
#25 = CC_DESIGN_DATE_AND_TIME_ASSIGNMENT ( #73, #71, ( #197 ) ) ;
#26 = ADVANCED_FACE ( 'NONE', ( #39 ), #29, .T. ) ;
#27 = PRODUCT ( '160005', '160005', '', ( #133 ) ) ;
#28 = APPROVAL_PERSON_ORGANIZATION ( #181, #106, #37 ) ;
#29 = SPHERICAL_SURFACE ( 'NONE', #167, 3.000000000000000400 ) ;
#30 = ORGANIZATION ( 'Î´Ö¸¶¨', 'Î´Ö¸¶¨', '' ) ;
#31 = DIRECTION ( 'NONE',  ( 1.000000000000000000, 0.0000000000000000000, 0.0000000000000000000 ) ) ;
#32 = APPLICATION_PROTOCOL_DEFINITION ( 'international standard', 'config_control_design', 1994, #15 ) ;
#33 = PERSON_AND_ORGANIZATION ( #166, #30 ) ;
#34 = DIRECTION ( 'NONE',  ( 0.0000000000000000000, -1.000000000000000000, -0.0000000000000000000 ) ) ;
#35 =( GEOMETRIC_REPRESENTATION_CONTEXT ( 3 ) GLOBAL_UNCERTAINTY_ASSIGNED_CONTEXT ( ( #110 ) ) GLOBAL_UNIT_ASSIGNED_CONTEXT ( ( #189, #16, #112 ) ) REPRESENTATION_CONTEXT ( 'NONE', 'WORKASPACE' ) );
#36 = CC_DESIGN_APPROVAL ( #184, ( #197 ) ) ;
#37 = APPROVAL_ROLE ( '' ) ;
#38 = SECURITY_CLASSIFICATION_LEVEL ( 'unclassified' ) ;
#39 = FACE_OUTER_BOUND ( 'NONE', #93, .T. ) ;
#40 = CIRCLE ( 'NONE', #191, 3.000000000000000400 ) ;
#41 = PERSON_AND_ORGANIZATION ( #166, #30 ) ;
#42 = PRODUCT_DEFINITION_SHAPE ( 'NONE', 'NONE',  #151 ) ;
#43 = CC_DESIGN_PERSON_AND_ORGANIZATION_ASSIGNMENT ( #122, #161, ( #55 ) ) ;
#44 = APPROVAL_PERSON_ORGANIZATION ( #138, #5, #120 ) ;
#45 = DATE_AND_TIME ( #89, #56 ) ;
#46 = AXIS2_PLACEMENT_3D ( 'NONE', #143, #173, #98 ) ;
#47 = APPROVAL_STATUS ( 'not_yet_approved' ) ;
#48 = DIRECTION ( 'NONE',  ( 1.000000000000000000, 0.0000000000000000000, 0.0000000000000000000 ) ) ;
#49 = COORDINATED_UNIVERSAL_TIME_OFFSET ( 8, 0, .AHEAD. ) ;
#50 = APPROVAL_DATE_TIME ( #136, #82 ) ;
#51 = APPROVAL_STATUS ( 'not_yet_approved' ) ;
#52 = COORDINATED_UNIVERSAL_TIME_OFFSET ( 8, 0, .AHEAD. ) ;
#53 = CALENDAR_DATE ( 2019, 5, 6 ) ;
#54 = PERSON_AND_ORGANIZATION ( #166, #30 ) ;
#55 = SECURITY_CLASSIFICATION ( '', '', #22 ) ;
#56 = LOCAL_TIME ( 13, 46, 25.00000000000000000, #52 ) ;
#57 = ADVANCED_FACE ( 'NONE', ( #203 ), #111, .T. ) ;
#58 = CC_DESIGN_PERSON_AND_ORGANIZATION_ASSIGNMENT ( #41, #1, ( #76 ) ) ;
#59 = LOCAL_TIME ( 13, 46, 25.00000000000000000, #199 ) ;
#60 = APPROVAL_PERSON_ORGANIZATION ( #54, #82, #159 ) ;
#61 = VERTEX_POINT ( 'NONE', #113 ) ;
#62 = DIRECTION ( 'NONE',  ( 0.0000000000000000000, 0.0000000000000000000, 1.000000000000000000 ) ) ;
#63 = ADVANCED_BREP_SHAPE_REPRESENTATION ( '160005', ( #10, #149 ), #35 ) ;
#64 = PERSON_AND_ORGANIZATION_ROLE ( 'creator' ) ;
#65 = COORDINATED_UNIVERSAL_TIME_OFFSET ( 8, 0, .AHEAD. ) ;
#66 = DATE_AND_TIME ( #109, #18 ) ;
#67 = DIRECTION ( 'NONE',  ( 1.000000000000000000, 1.224646799147353200E-016, 0.0000000000000000000 ) ) ;
#68 = APPROVAL_STATUS ( 'not_yet_approved' ) ;
#69 = APPROVAL_STATUS ( 'not_yet_approved' ) ;
#70 = CC_DESIGN_APPROVAL ( #106, ( #151 ) ) ;
#71 = DATE_TIME_ROLE ( 'classification_date' ) ;
#72 = APPROVAL_STATUS ( 'not_yet_approved' ) ;
#73 = DATE_AND_TIME ( #114, #59 ) ;
#74 = CC_DESIGN_APPROVAL ( #82, ( #128 ) ) ;
#75 = LOCAL_TIME ( 13, 46, 25.00000000000000000, #65 ) ;
#76 = PRODUCT ( '160005', '160005', '', ( #172 ) ) ;
#77 = PERSON_AND_ORGANIZATION ( #166, #30 ) ;
#78 = LOCAL_TIME ( 13, 46, 25.00000000000000000, #160 ) ;
#79 = VERTEX_POINT ( 'NONE', #195 ) ;
#80 = APPROVAL ( #51, 'Î´Ö¸¶¨' ) ;
#81 = PERSON_AND_ORGANIZATION ( #166, #30 ) ;
#82 = APPROVAL ( #47, 'Î´Ö¸¶¨' ) ;
#83 = APPROVAL_DATE_TIME ( #45, #104 ) ;
#84 = CC_DESIGN_PERSON_AND_ORGANIZATION_ASSIGNMENT ( #81, #101, ( #147 ) ) ;
#85 = APPROVAL_ROLE ( '' ) ;
#86 = DATE_TIME_ROLE ( 'creation_date' ) ;
#87 = APPROVAL_DATE_TIME ( #140, #184 ) ;
#88 = CC_DESIGN_DATE_AND_TIME_ASSIGNMENT ( #185, #20, ( #55 ) ) ;
#89 = CALENDAR_DATE ( 2019, 5, 6 ) ;
#90 = PRODUCT_DEFINITION_FORMATION_WITH_SPECIFIED_SOURCE ( 'ÈÎºÎ', '', #76, .NOT_KNOWN. ) ;
#91 = PERSON_AND_ORGANIZATION ( #166, #30 ) ;
#92 = CC_DESIGN_PERSON_AND_ORGANIZATION_ASSIGNMENT ( #33, #119, ( #151 ) ) ;
#93 = EDGE_LOOP ( 'NONE', ( #178, #3 ) ) ;
#94 = DIRECTION ( 'NONE',  ( 0.0000000000000000000, -1.000000000000000000, -0.0000000000000000000 ) ) ;
#95 = CARTESIAN_POINT ( 'NONE',  ( 0.0000000000000000000, 0.0000000000000000000, 0.0000000000000000000 ) ) ;
#96 = DIRECTION ( 'NONE',  ( 0.0000000000000000000, 0.0000000000000000000, 1.000000000000000000 ) ) ;
#97 = LOCAL_TIME ( 13, 46, 25.00000000000000000, #49 ) ;
#98 = DIRECTION ( 'NONE',  ( 1.000000000000000000, 0.0000000000000000000, 0.0000000000000000000 ) ) ;
#99 = PERSON_AND_ORGANIZATION_ROLE ( 'classification_officer' ) ;
#100 = PRODUCT_RELATED_PRODUCT_CATEGORY ( 'detail', '', ( #27 ) ) ;
#101 = PERSON_AND_ORGANIZATION_ROLE ( 'design_supplier' ) ;
#102 = APPLICATION_PROTOCOL_DEFINITION ( 'international standard', 'config_control_design', 1994, #7 ) ;
#103 = DESIGN_CONTEXT ( 'detailed design', #7, 'design' ) ;
#104 = APPROVAL ( #179, 'Î´Ö¸¶¨' ) ;
#105 = DATE_AND_TIME ( #53, #125 ) ;
#106 = APPROVAL ( #68, 'Î´Ö¸¶¨' ) ;
#107 = SHAPE_DEFINITION_REPRESENTATION ( #42, #63 ) ;
#108 = APPROVAL_PERSON_ORGANIZATION ( #150, #184, #130 ) ;
#109 = CALENDAR_DATE ( 2019, 5, 6 ) ;
#110 = UNCERTAINTY_MEASURE_WITH_UNIT (LENGTH_MEASURE( 1.000000000000000100E-005 ), #189, 'distance_accuracy_value', 'NONE');
#111 = SPHERICAL_SURFACE ( 'NONE', #24, 3.000000000000000400 ) ;
#112 =( NAMED_UNIT ( * ) SI_UNIT ( $, .STERADIAN. ) SOLID_ANGLE_UNIT ( ) );
#113 = CARTESIAN_POINT ( 'NONE',  ( 1.836970198721030200E-016, 0.0000000000000000000, -3.000000000000000400 ) ) ;
#114 = CALENDAR_DATE ( 2019, 5, 6 ) ;
#115 = CARTESIAN_POINT ( 'NONE',  ( 0.0000000000000000000, 0.0000000000000000000, 0.0000000000000000000 ) ) ;
#116 = CC_DESIGN_SECURITY_CLASSIFICATION ( #197, ( #147 ) ) ;
#117 = PERSON_AND_ORGANIZATION ( #166, #30 ) ;
#118 = COORDINATED_UNIVERSAL_TIME_OFFSET ( 8, 0, .AHEAD. ) ;
#119 = PERSON_AND_ORGANIZATION_ROLE ( 'creator' ) ;
#120 = APPROVAL_ROLE ( '' ) ;
#121 = COORDINATED_UNIVERSAL_TIME_OFFSET ( 8, 0, .AHEAD. ) ;
#122 = PERSON_AND_ORGANIZATION ( #166, #30 ) ;
#123 = CIRCLE ( 'NONE', #145, 3.000000000000000400 ) ;
#124 = CC_DESIGN_PERSON_AND_ORGANIZATION_ASSIGNMENT ( #117, #177, ( #90 ) ) ;
#125 = LOCAL_TIME ( 13, 46, 25.00000000000000000, #121 ) ;
#126 = CC_DESIGN_PERSON_AND_ORGANIZATION_ASSIGNMENT ( #154, #6, ( #90 ) ) ;
#127 = ORIENTED_EDGE ( 'NONE', *, *, #8, .T. ) ;
#128 = PRODUCT_DEFINITION ( 'Î´Öª', '', #90, #4 ) ;
#129 = DIRECTION ( 'NONE',  ( 1.000000000000000000, 0.0000000000000000000, 0.0000000000000000000 ) ) ;
#130 = APPROVAL_ROLE ( '' ) ;
#131 = APPLICATION_PROTOCOL_DEFINITION ( 'international standard', 'config_control_design', 1994, #190 ) ;
#132 = CC_DESIGN_APPROVAL ( #5, ( #55 ) ) ;
#133 = MECHANICAL_CONTEXT ( 'NONE', #190, 'mechanical' ) ;
#134 = CC_DESIGN_APPROVAL ( #104, ( #90 ) ) ;
#135 = DATE_AND_TIME ( #164, #17 ) ;
#136 = DATE_AND_TIME ( #176, #183 ) ;
#137 = EDGE_LOOP ( 'NONE', ( #14, #127 ) ) ;
#138 = PERSON_AND_ORGANIZATION ( #166, #30 ) ;
#139 = APPROVAL_PERSON_ORGANIZATION ( #144, #80, #148 ) ;
#140 = DATE_AND_TIME ( #188, #75 ) ;
#141 = PRODUCT_RELATED_PRODUCT_CATEGORY ( 'detail', '', ( #76 ) ) ;
#142 = CARTESIAN_POINT ( 'NONE',  ( 0.0000000000000000000, 0.0000000000000000000, 0.0000000000000000000 ) ) ;
#143 = CARTESIAN_POINT ( 'NONE',  ( 0.0000000000000000000, 0.0000000000000000000, 0.0000000000000000000 ) ) ;
#144 = PERSON_AND_ORGANIZATION ( #166, #30 ) ;
#145 = AXIS2_PLACEMENT_3D ( 'NONE', #95, #192, #67 ) ;
#146 = CARTESIAN_POINT ( 'NONE',  ( 0.0000000000000000000, 0.0000000000000000000, 0.0000000000000000000 ) ) ;
#147 = PRODUCT_DEFINITION_FORMATION_WITH_SPECIFIED_SOURCE ( 'ÈÎºÎ', '', #27, .NOT_KNOWN. ) ;
#148 = APPROVAL_ROLE ( '' ) ;
#149 = AXIS2_PLACEMENT_3D ( 'NONE', #142, #62, #129 ) ;
#150 = PERSON_AND_ORGANIZATION ( #166, #30 ) ;
#151 = PRODUCT_DEFINITION ( 'Î´Öª', '', #147, #103 ) ;
#152 = CALENDAR_DATE ( 2019, 5, 6 ) ;
#153 = PRODUCT_DEFINITION_SHAPE ( 'NONE', 'NONE',  #128 ) ;
#154 = PERSON_AND_ORGANIZATION ( #166, #30 ) ;
#155 = CC_DESIGN_PERSON_AND_ORGANIZATION_ASSIGNMENT ( #77, #99, ( #197 ) ) ;
#156 = APPLICATION_PROTOCOL_DEFINITION ( 'international standard', 'config_control_design', 1994, #171 ) ;
#157 = CC_DESIGN_PERSON_AND_ORGANIZATION_ASSIGNMENT ( #169, #64, ( #128 ) ) ;
#158 = DATE_AND_TIME ( #11, #97 ) ;
#159 = APPROVAL_ROLE ( '' ) ;
#160 = COORDINATED_UNIVERSAL_TIME_OFFSET ( 8, 0, .AHEAD. ) ;
#161 = PERSON_AND_ORGANIZATION_ROLE ( 'classification_officer' ) ;
#162 = PERSON_AND_ORGANIZATION_ROLE ( 'creator' ) ;
#163 = CC_DESIGN_DATE_AND_TIME_ASSIGNMENT ( #158, #196, ( #151 ) ) ;
#164 = CALENDAR_DATE ( 2019, 5, 6 ) ;
#165 = CC_DESIGN_SECURITY_CLASSIFICATION ( #55, ( #90 ) ) ;
#166 = PERSON ( 'Î´Ö¸¶¨', 'Î´Ö¸¶¨', 'Î´Ö¸¶¨', ('Î´Ö¸¶¨'), ('Î´Ö¸¶¨'), ('Î´Ö¸¶¨') ) ;
#167 = AXIS2_PLACEMENT_3D ( 'NONE', #2, #34, #31 ) ;
#168 = PERSON_AND_ORGANIZATION ( #166, #30 ) ;
#169 = PERSON_AND_ORGANIZATION ( #166, #30 ) ;
#170 = CC_DESIGN_PERSON_AND_ORGANIZATION_ASSIGNMENT ( #168, #162, ( #147 ) ) ;
#171 = APPLICATION_CONTEXT ( 'configuration controlled 3d designs of mechanical parts and assemblies' ) ;
#172 = MECHANICAL_CONTEXT ( 'NONE', #171, 'mechanical' ) ;
#173 = DIRECTION ( 'NONE',  ( 0.0000000000000000000, 0.0000000000000000000, 1.000000000000000000 ) ) ;
#174 = APPROVAL_DATE_TIME ( #202, #106 ) ;
#175 = COORDINATED_UNIVERSAL_TIME_OFFSET ( 8, 0, .AHEAD. ) ;
#176 = CALENDAR_DATE ( 2019, 5, 6 ) ;
#177 = PERSON_AND_ORGANIZATION_ROLE ( 'design_supplier' ) ;
#178 = ORIENTED_EDGE ( 'NONE', *, *, #8, .F. ) ;
#179 = APPROVAL_STATUS ( 'not_yet_approved' ) ;
#180 = CC_DESIGN_DATE_AND_TIME_ASSIGNMENT ( #66, #86, ( #128 ) ) ;
#181 = PERSON_AND_ORGANIZATION ( #166, #30 ) ;
#182 = APPROVAL_PERSON_ORGANIZATION ( #187, #104, #85 ) ;
#183 = LOCAL_TIME ( 13, 46, 25.00000000000000000, #19 ) ;
#184 = APPROVAL ( #69, 'Î´Ö¸¶¨' ) ;
#185 = DATE_AND_TIME ( #21, #78 ) ;
#186 = APPROVAL_DATE_TIME ( #135, #5 ) ;
#187 = PERSON_AND_ORGANIZATION ( #166, #30 ) ;
#188 = CALENDAR_DATE ( 2019, 5, 6 ) ;
#189 =( LENGTH_UNIT ( ) NAMED_UNIT ( * ) SI_UNIT ( .MILLI., .METRE. ) );
#190 = APPLICATION_CONTEXT ( 'configuration controlled 3d designs of mechanical parts and assemblies' ) ;
#191 = AXIS2_PLACEMENT_3D ( 'NONE', #115, #194, #96 ) ;
#192 = DIRECTION ( 'NONE',  ( 1.224646799147353200E-016, -1.000000000000000000, 0.0000000000000000000 ) ) ;
#193 = LOCAL_TIME ( 13, 46, 25.00000000000000000, #23 ) ;
#194 = DIRECTION ( 'NONE',  ( 0.0000000000000000000, 1.000000000000000000, -0.0000000000000000000 ) ) ;
#195 = CARTESIAN_POINT ( 'NONE',  ( 1.836970198721030200E-016, 0.0000000000000000000, 3.000000000000000400 ) ) ;
#196 = DATE_TIME_ROLE ( 'creation_date' ) ;
#197 = SECURITY_CLASSIFICATION ( '', '', #38 ) ;
#198 = PERSON_AND_ORGANIZATION_ROLE ( 'design_owner' ) ;
#199 = COORDINATED_UNIVERSAL_TIME_OFFSET ( 8, 0, .AHEAD. ) ;
#200 = CLOSED_SHELL ( 'NONE', ( #26, #57 ) ) ;
#201 = CC_DESIGN_APPROVAL ( #80, ( #147 ) ) ;
#202 = DATE_AND_TIME ( #152, #193 ) ;
#203 = FACE_OUTER_BOUND ( 'NONE', #137, .T. ) ;
ENDSEC;
END-ISO-10303-21;
