ISO-10303-21;
HEADER;
FILE_DESCRIPTION (( 'STEP AP214' ),
    '1' );
FILE_NAME ('155346.STEP',
    '2019-06-28T03:19:44',
    ( 'user' ),
    ( 'Î¢ÈíÖÐ¹ú' ),
    'SwSTEP 2.0',
    'SolidWorks 2016',
    '' );
FILE_SCHEMA (( 'AUTOMOTIVE_DESIGN' ));
ENDSEC;

DATA;
#1 = PRODUCT_DEFINITION_CONTEXT ( 'detailed design', #73, 'design' ) ;
#2 = ORIENTED_EDGE ( 'NONE', *, *, #183, .T. ) ;
#3 = CARTESIAN_POINT ( 'NONE',  ( -41.78000000000000100, 20.00000000000000000, 10.00000000000000900 ) ) ;
#4 = DIRECTION ( 'NONE',  ( -0.0000000000000000000, -1.000000000000000000, -0.0000000000000000000 ) ) ;
#5 = DIRECTION ( 'NONE',  ( 0.0000000000000000000, 0.0000000000000000000, 1.000000000000000000 ) ) ;
#6 = VECTOR ( 'NONE', #8, 1000.000000000000000 ) ;
#7 = PRODUCT_CONTEXT ( 'NONE', #105, 'mechanical' ) ;
#8 = DIRECTION ( 'NONE',  ( -0.0000000000000000000, -1.000000000000000000, -0.0000000000000000000 ) ) ;
#9 = ORIENTED_EDGE ( 'NONE', *, *, #164, .T. ) ;
#10 = LINE ( 'NONE', #197, #104 ) ;
#11 = APPLICATION_PROTOCOL_DEFINITION ( 'draft international standard', 'automotive_design', 1998, #105 ) ;
#12 = EDGE_CURVE ( 'NONE', #87, #46, #10, .T. ) ;
#13 = DIRECTION ( 'NONE',  ( 0.0000000000000000000, 0.0000000000000000000, 1.000000000000000000 ) ) ;
#14 = CARTESIAN_POINT ( 'NONE',  ( 0.0000000000000000000, 20.00000000000000000, 0.0000000000000000000 ) ) ;
#15 = ORIENTED_EDGE ( 'NONE', *, *, #129, .T. ) ;
#16 =( NAMED_UNIT ( * ) SI_UNIT ( $, .STERADIAN. ) SOLID_ANGLE_UNIT ( ) );
#17 = DIRECTION ( 'NONE',  ( -0.0000000000000000000, -1.000000000000000000, -0.0000000000000000000 ) ) ;
#18 = PRODUCT_DEFINITION ( 'Î´Öª', '', #186, #1 ) ;
#19 = VECTOR ( 'NONE', #45, 1000.000000000000000 ) ;
#20 = FACE_OUTER_BOUND ( 'NONE', #68, .T. ) ;
#21 = EDGE_LOOP ( 'NONE', ( #117, #89, #127, #106 ) ) ;
#22 = ORIENTED_EDGE ( 'NONE', *, *, #114, .F. ) ;
#23 = ORIENTED_EDGE ( 'NONE', *, *, #25, .T. ) ;
#24 = CARTESIAN_POINT ( 'NONE',  ( 1.224646799147353300E-015, 0.0000000000000000000, 20.00000000000000000 ) ) ;
#25 = EDGE_CURVE ( 'NONE', #53, #112, #94, .T. ) ;
#26 = CYLINDRICAL_SURFACE ( 'NONE', #99, 38.78000000000000800 ) ;
#27 = UNCERTAINTY_MEASURE_WITH_UNIT (LENGTH_MEASURE( 1.000000000000000100E-005 ), #76, 'distance_accuracy_value', 'NONE');
#28 = SURFACE_SIDE_STYLE ('',( #195 ) ) ;
#29 = EDGE_CURVE ( 'NONE', #46, #53, #146, .T. ) ;
#30 = ORIENTED_EDGE ( 'NONE', *, *, #114, .T. ) ;
#31 = ORIENTED_EDGE ( 'NONE', *, *, #145, .T. ) ;
#32 = FILL_AREA_STYLE ('',( #172 ) ) ;
#33 = ADVANCED_FACE ( 'NONE', ( #128 ), #71, .F. ) ;
#34 = CARTESIAN_POINT ( 'NONE',  ( -4.311501231034083200, 0.0000000000000000000, 20.00000000000000400 ) ) ;
#35 = ADVANCED_FACE ( 'NONE', ( #109 ), #108, .F. ) ;
#36 = VERTEX_POINT ( 'NONE', #24 ) ;
#37 = CARTESIAN_POINT ( 'NONE',  ( -41.78000000000000100, 20.00000000000000000, 10.00000000000000900 ) ) ;
#38 = AXIS2_PLACEMENT_3D ( 'NONE', #37, #118, #13 ) ;
#39 =( LENGTH_UNIT ( ) NAMED_UNIT ( * ) SI_UNIT ( .MILLI., .METRE. ) );
#40 = CARTESIAN_POINT ( 'NONE',  ( 0.0000000000000000000, 20.00000000000000000, 0.0000000000000000000 ) ) ;
#41 = ORIENTED_EDGE ( 'NONE', *, *, #183, .F. ) ;
#42 = FACE_OUTER_BOUND ( 'NONE', #65, .T. ) ;
#43 = MANIFOLD_SOLID_BREP ( 'Í¹Ì¨-À­Éì1', #52 ) ;
#44 = APPLICATION_PROTOCOL_DEFINITION ( 'draft international standard', 'automotive_design', 1998, #73 ) ;
#45 = DIRECTION ( 'NONE',  ( -6.123233995736766000E-017, -0.0000000000000000000, -1.000000000000000000 ) ) ;
#46 = VERTEX_POINT ( 'NONE', #149 ) ;
#47 = STYLED_ITEM ( 'NONE', ( #192 ), #43 ) ;
#48 = EDGE_LOOP ( 'NONE', ( #31, #82, #115, #15 ) ) ;
#49 = AXIS2_PLACEMENT_3D ( 'NONE', #182, #124, #137 ) ;
#50 = VECTOR ( 'NONE', #151, 1000.000000000000000 ) ;
#51 = SURFACE_SIDE_STYLE ('',( #85 ) ) ;
#52 = CLOSED_SHELL ( 'NONE', ( #35, #150, #175, #199, #91, #33 ) ) ;
#53 = VERTEX_POINT ( 'NONE', #148 ) ;
#54 = CARTESIAN_POINT ( 'NONE',  ( 1.224646799147353300E-015, 0.0000000000000000000, 20.00000000000000000 ) ) ;
#55 = PRODUCT_RELATED_PRODUCT_CATEGORY ( 'part', '', ( #113 ) ) ;
#56 = PLANE ( 'NONE',  #161 ) ;
#57 = ORIENTED_EDGE ( 'NONE', *, *, #179, .F. ) ;
#58 = CARTESIAN_POINT ( 'NONE',  ( 0.0000000000000000000, 0.0000000000000000000, 0.0000000000000000000 ) ) ;
#59 = VECTOR ( 'NONE', #188, 1000.000000000000000 ) ;
#60 = DIRECTION ( 'NONE',  ( 1.000000000000000000, -0.0000000000000000000, -8.046958045565700500E-016 ) ) ;
#61 = VECTOR ( 'NONE', #17, 1000.000000000000000 ) ;
#62 = DIRECTION ( 'NONE',  ( -0.0000000000000000000, -1.000000000000000000, -0.0000000000000000000 ) ) ;
#63 = CARTESIAN_POINT ( 'NONE',  ( 0.0000000000000000000, 20.00000000000000000, 0.0000000000000000000 ) ) ;
#64 = CARTESIAN_POINT ( 'NONE',  ( 0.0000000000000000000, 0.0000000000000000000, 0.0000000000000000000 ) ) ;
#65 = EDGE_LOOP ( 'NONE', ( #69, #2, #116, #78 ) ) ;
#66 = PRESENTATION_LAYER_ASSIGNMENT (  '', '', ( #155 ) ) ;
#67 = FACE_OUTER_BOUND ( 'NONE', #48, .T. ) ;
#68 = EDGE_LOOP ( 'NONE', ( #98, #133, #174, #30 ) ) ;
#69 = ORIENTED_EDGE ( 'NONE', *, *, #170, .T. ) ;
#70 =( GEOMETRIC_REPRESENTATION_CONTEXT ( 3 ) GLOBAL_UNCERTAINTY_ASSIGNED_CONTEXT ( ( #27 ) ) GLOBAL_UNIT_ASSIGNED_CONTEXT ( ( #76, #153, #162 ) ) REPRESENTATION_CONTEXT ( 'NONE', 'WORKASPACE' ) );
#71 = PLANE ( 'NONE',  #92 ) ;
#72 = CIRCLE ( 'NONE', #134, 38.78000000000000800 ) ;
#73 = APPLICATION_CONTEXT ( 'automotive_design' ) ;
#74 = ORIENTED_EDGE ( 'NONE', *, *, #179, .T. ) ;
#75 = LINE ( 'NONE', #201, #6 ) ;
#76 =( LENGTH_UNIT ( ) NAMED_UNIT ( * ) SI_UNIT ( .MILLI., .METRE. ) );
#77 = EDGE_LOOP ( 'NONE', ( #9, #57, #110, #23 ) ) ;
#78 = ORIENTED_EDGE ( 'NONE', *, *, #29, .T. ) ;
#79 = SURFACE_STYLE_USAGE ( .BOTH. , #28 ) ;
#80 = CARTESIAN_POINT ( 'NONE',  ( 0.0000000000000000000, 0.0000000000000000000, 0.0000000000000000000 ) ) ;
#81 = SURFACE_STYLE_USAGE ( .BOTH. , #51 ) ;
#82 = ORIENTED_EDGE ( 'NONE', *, *, #25, .F. ) ;
#83 = DIRECTION ( 'NONE',  ( -8.046958045565696600E-016, 0.0000000000000000000, 1.000000000000000000 ) ) ;
#84 = COLOUR_RGB ( '',1.000000000000000000, 1.000000000000000000, 1.000000000000000000 ) ;
#85 = SURFACE_STYLE_FILL_AREA ( #111 ) ;
#86 = CIRCLE ( 'NONE', #38, 38.78000000000000800 ) ;
#87 = VERTEX_POINT ( 'NONE', #140 ) ;
#88 = ORIENTED_EDGE ( 'NONE', *, *, #167, .T. ) ;
#89 = ORIENTED_EDGE ( 'NONE', *, *, #145, .F. ) ;
#90 = UNCERTAINTY_MEASURE_WITH_UNIT (LENGTH_MEASURE( 1.000000000000000100E-005 ), #39, 'distance_accuracy_value', 'NONE');
#91 = ADVANCED_FACE ( 'NONE', ( #42 ), #136, .T. ) ;
#92 = AXIS2_PLACEMENT_3D ( 'NONE', #171, #160, #203 ) ;
#93 = AXIS2_PLACEMENT_3D ( 'NONE', #64, #132, #120 ) ;
#94 = LINE ( 'NONE', #14, #61 ) ;
#95 = DIRECTION ( 'NONE',  ( -1.000000000000000000, 0.0000000000000000000, 8.046958045565700500E-016 ) ) ;
#96 =( GEOMETRIC_REPRESENTATION_CONTEXT ( 3 ) GLOBAL_UNCERTAINTY_ASSIGNED_CONTEXT ( ( #157 ) ) GLOBAL_UNIT_ASSIGNED_CONTEXT ( ( #107, #100, #202 ) ) REPRESENTATION_CONTEXT ( 'NONE', 'WORKASPACE' ) );
#97 = SHAPE_DEFINITION_REPRESENTATION ( #166, #102 ) ;
#98 = ORIENTED_EDGE ( 'NONE', *, *, #194, .T. ) ;
#99 = AXIS2_PLACEMENT_3D ( 'NONE', #168, #62, #198 ) ;
#100 =( NAMED_UNIT ( * ) PLANE_ANGLE_UNIT ( ) SI_UNIT ( $, .RADIAN. ) );
#101 = MECHANICAL_DESIGN_GEOMETRIC_PRESENTATION_REPRESENTATION (  '', ( #155 ), #96 ) ;
#102 = ADVANCED_BREP_SHAPE_REPRESENTATION ( '155346', ( #43, #93 ), #70 ) ;
#103 = CARTESIAN_POINT ( 'NONE',  ( 0.0000000000000000000, 0.0000000000000000000, 0.0000000000000000000 ) ) ;
#104 = VECTOR ( 'NONE', #119, 1000.000000000000000 ) ;
#105 = APPLICATION_CONTEXT ( 'automotive_design' ) ;
#106 = ORIENTED_EDGE ( 'NONE', *, *, #167, .F. ) ;
#107 =( LENGTH_UNIT ( ) NAMED_UNIT ( * ) SI_UNIT ( .MILLI., .METRE. ) );
#108 = PLANE ( 'NONE',  #200 ) ;
#109 = FACE_OUTER_BOUND ( 'NONE', #77, .T. ) ;
#110 = ORIENTED_EDGE ( 'NONE', *, *, #170, .F. ) ;
#111 = FILL_AREA_STYLE ('',( #196 ) ) ;
#112 = VERTEX_POINT ( 'NONE', #103 ) ;
#113 = PRODUCT ( '155346', '155346', '', ( #7 ) ) ;
#114 = EDGE_CURVE ( 'NONE', #87, #121, #131, .T. ) ;
#115 = ORIENTED_EDGE ( 'NONE', *, *, #29, .F. ) ;
#116 = ORIENTED_EDGE ( 'NONE', *, *, #12, .T. ) ;
#117 = ORIENTED_EDGE ( 'NONE', *, *, #164, .F. ) ;
#118 = DIRECTION ( 'NONE',  ( -0.0000000000000000000, -1.000000000000000000, -0.0000000000000000000 ) ) ;
#119 = DIRECTION ( 'NONE',  ( 1.000000000000000000, -0.0000000000000000000, -8.046958045565700500E-016 ) ) ;
#120 = DIRECTION ( 'NONE',  ( 1.000000000000000000, 0.0000000000000000000, 0.0000000000000000000 ) ) ;
#121 = VERTEX_POINT ( 'NONE', #34 ) ;
#122 = CARTESIAN_POINT ( 'NONE',  ( 0.0000000000000000000, 20.00000000000000000, 0.0000000000000000000 ) ) ;
#123 = CARTESIAN_POINT ( 'NONE',  ( -4.311501231034083200, 0.0000000000000000000, -1.734723475976807100E-015 ) ) ;
#124 = DIRECTION ( 'NONE',  ( -1.000000000000000000, 0.0000000000000000000, 6.123233995736766000E-017 ) ) ;
#125 = PRESENTATION_STYLE_ASSIGNMENT (( #79 ) ) ;
#126 =( NAMED_UNIT ( * ) PLANE_ANGLE_UNIT ( ) SI_UNIT ( $, .RADIAN. ) );
#127 = ORIENTED_EDGE ( 'NONE', *, *, #194, .F. ) ;
#128 = FACE_OUTER_BOUND ( 'NONE', #21, .T. ) ;
#129 = EDGE_CURVE ( 'NONE', #46, #36, #180, .T. ) ;
#130 = COLOUR_RGB ( '',1.000000000000000000, 1.000000000000000000, 1.000000000000000000 ) ;
#131 = LINE ( 'NONE', #141, #147 ) ;
#132 = DIRECTION ( 'NONE',  ( 0.0000000000000000000, 0.0000000000000000000, 1.000000000000000000 ) ) ;
#133 = ORIENTED_EDGE ( 'NONE', *, *, #129, .F. ) ;
#134 = AXIS2_PLACEMENT_3D ( 'NONE', #185, #4, #5 ) ;
#135 = DIRECTION ( 'NONE',  ( 0.0000000000000000000, 1.000000000000000000, 0.0000000000000000000 ) ) ;
#136 = PLANE ( 'NONE',  #176 ) ;
#137 = DIRECTION ( 'NONE',  ( 6.123233995736766000E-017, 0.0000000000000000000, 1.000000000000000000 ) ) ;
#138 = DIRECTION ( 'NONE',  ( 1.000000000000000000, 0.0000000000000000000, 8.046958045565696600E-016 ) ) ;
#139 = FACE_OUTER_BOUND ( 'NONE', #144, .T. ) ;
#140 = CARTESIAN_POINT ( 'NONE',  ( -4.311501231034083200, 20.00000000000000000, 20.00000000000000400 ) ) ;
#141 = CARTESIAN_POINT ( 'NONE',  ( -4.311501231034083200, 20.00000000000000000, 20.00000000000000400 ) ) ;
#142 = DIRECTION ( 'NONE',  ( -8.046958045565700500E-016, 0.0000000000000000000, -1.000000000000000000 ) ) ;
#143 = VECTOR ( 'NONE', #60, 1000.000000000000000 ) ;
#144 = EDGE_LOOP ( 'NONE', ( #88, #22, #41, #74 ) ) ;
#145 = EDGE_CURVE ( 'NONE', #36, #112, #152, .T. ) ;
#146 = LINE ( 'NONE', #40, #19 ) ;
#147 = VECTOR ( 'NONE', #163, 1000.000000000000000 ) ;
#148 = CARTESIAN_POINT ( 'NONE',  ( 0.0000000000000000000, 20.00000000000000000, 0.0000000000000000000 ) ) ;
#149 = CARTESIAN_POINT ( 'NONE',  ( 1.224646799147353300E-015, 20.00000000000000000, 20.00000000000000000 ) ) ;
#150 = ADVANCED_FACE ( 'NONE', ( #139 ), #26, .F. ) ;
#151 = DIRECTION ( 'NONE',  ( -1.000000000000000000, 0.0000000000000000000, -8.046958045565696600E-016 ) ) ;
#152 = LINE ( 'NONE', #58, #156 ) ;
#153 =( NAMED_UNIT ( * ) PLANE_ANGLE_UNIT ( ) SI_UNIT ( $, .RADIAN. ) );
#154 = MECHANICAL_DESIGN_GEOMETRIC_PRESENTATION_REPRESENTATION (  '', ( #47 ), #189 ) ;
#155 = STYLED_ITEM ( 'NONE', ( #125 ), #102 ) ;
#156 = VECTOR ( 'NONE', #184, 1000.000000000000000 ) ;
#157 = UNCERTAINTY_MEASURE_WITH_UNIT (LENGTH_MEASURE( 1.000000000000000100E-005 ), #107, 'distance_accuracy_value', 'NONE');
#158 = VECTOR ( 'NONE', #159, 1000.000000000000000 ) ;
#159 = DIRECTION ( 'NONE',  ( -1.000000000000000000, 0.0000000000000000000, -8.046958045565696600E-016 ) ) ;
#160 = DIRECTION ( 'NONE',  ( 0.0000000000000000000, 1.000000000000000000, 0.0000000000000000000 ) ) ;
#161 = AXIS2_PLACEMENT_3D ( 'NONE', #165, #142, #95 ) ;
#162 =( NAMED_UNIT ( * ) SI_UNIT ( $, .STERADIAN. ) SOLID_ANGLE_UNIT ( ) );
#163 = DIRECTION ( 'NONE',  ( -0.0000000000000000000, -1.000000000000000000, -0.0000000000000000000 ) ) ;
#164 = EDGE_CURVE ( 'NONE', #112, #193, #190, .T. ) ;
#165 = CARTESIAN_POINT ( 'NONE',  ( 1.224646799147353300E-015, 20.00000000000000000, 20.00000000000000000 ) ) ;
#166 = PRODUCT_DEFINITION_SHAPE ( 'NONE', 'NONE',  #18 ) ;
#167 = EDGE_CURVE ( 'NONE', #193, #121, #72, .T. ) ;
#168 = CARTESIAN_POINT ( 'NONE',  ( -41.78000000000000100, 20.00000000000000000, 10.00000000000000900 ) ) ;
#169 = DIRECTION ( 'NONE',  ( 0.0000000000000000000, -0.0000000000000000000, 1.000000000000000000 ) ) ;
#170 = EDGE_CURVE ( 'NONE', #53, #181, #187, .T. ) ;
#171 = CARTESIAN_POINT ( 'NONE',  ( -41.78000000000000100, 0.0000000000000000000, 10.00000000000000900 ) ) ;
#172 = FILL_AREA_STYLE_COLOUR ( '', #130 ) ;
#173 = CARTESIAN_POINT ( 'NONE',  ( 1.224646799147353300E-015, 20.00000000000000000, 20.00000000000000000 ) ) ;
#174 = ORIENTED_EDGE ( 'NONE', *, *, #12, .F. ) ;
#175 = ADVANCED_FACE ( 'NONE', ( #20 ), #56, .F. ) ;
#176 = AXIS2_PLACEMENT_3D ( 'NONE', #3, #135, #169 ) ;
#177 = CARTESIAN_POINT ( 'NONE',  ( -4.311501231034083200, 20.00000000000000000, -1.734723475976807100E-015 ) ) ;
#178 = LINE ( 'NONE', #54, #143 ) ;
#179 = EDGE_CURVE ( 'NONE', #181, #193, #75, .T. ) ;
#180 = LINE ( 'NONE', #173, #59 ) ;
#181 = VERTEX_POINT ( 'NONE', #177 ) ;
#182 = CARTESIAN_POINT ( 'NONE',  ( 0.0000000000000000000, 20.00000000000000000, 0.0000000000000000000 ) ) ;
#183 = EDGE_CURVE ( 'NONE', #181, #87, #86, .T. ) ;
#184 = DIRECTION ( 'NONE',  ( -6.123233995736766000E-017, -0.0000000000000000000, -1.000000000000000000 ) ) ;
#185 = CARTESIAN_POINT ( 'NONE',  ( -41.78000000000000100, 0.0000000000000000000, 10.00000000000000900 ) ) ;
#186 = PRODUCT_DEFINITION_FORMATION_WITH_SPECIFIED_SOURCE ( 'ÈÎºÎ', '', #113, .NOT_KNOWN. ) ;
#187 = LINE ( 'NONE', #63, #158 ) ;
#188 = DIRECTION ( 'NONE',  ( -0.0000000000000000000, -1.000000000000000000, -0.0000000000000000000 ) ) ;
#189 =( GEOMETRIC_REPRESENTATION_CONTEXT ( 3 ) GLOBAL_UNCERTAINTY_ASSIGNED_CONTEXT ( ( #90 ) ) GLOBAL_UNIT_ASSIGNED_CONTEXT ( ( #39, #126, #16 ) ) REPRESENTATION_CONTEXT ( 'NONE', 'WORKASPACE' ) );
#190 = LINE ( 'NONE', #80, #50 ) ;
#191 = PLANE ( 'NONE',  #49 ) ;
#192 = PRESENTATION_STYLE_ASSIGNMENT (( #81 ) ) ;
#193 = VERTEX_POINT ( 'NONE', #123 ) ;
#194 = EDGE_CURVE ( 'NONE', #121, #36, #178, .T. ) ;
#195 = SURFACE_STYLE_FILL_AREA ( #32 ) ;
#196 = FILL_AREA_STYLE_COLOUR ( '', #84 ) ;
#197 = CARTESIAN_POINT ( 'NONE',  ( 1.224646799147353300E-015, 20.00000000000000000, 20.00000000000000000 ) ) ;
#198 = DIRECTION ( 'NONE',  ( 0.0000000000000000000, 0.0000000000000000000, -1.000000000000000000 ) ) ;
#199 = ADVANCED_FACE ( 'NONE', ( #67 ), #191, .F. ) ;
#200 = AXIS2_PLACEMENT_3D ( 'NONE', #122, #83, #138 ) ;
#201 = CARTESIAN_POINT ( 'NONE',  ( -4.311501231034083200, 20.00000000000000000, -1.734723475976807100E-015 ) ) ;
#202 =( NAMED_UNIT ( * ) SI_UNIT ( $, .STERADIAN. ) SOLID_ANGLE_UNIT ( ) );
#203 = DIRECTION ( 'NONE',  ( 0.0000000000000000000, -0.0000000000000000000, 1.000000000000000000 ) ) ;
#204 = PRESENTATION_LAYER_ASSIGNMENT (  '', '', ( #47 ) ) ;
ENDSEC;
END-ISO-10303-21;
