ISO-10303-21;
HEADER;
FILE_DESCRIPTION (( 'STEP AP214' ),
    '1' );
FILE_NAME ('155271.STEP',
    '2019-06-25T05:52:31',
    ( 'user' ),
    ( 'Î¢ÈíÖÐ¹ú' ),
    'SwSTEP 2.0',
    'SolidWorks 2016',
    '' );
FILE_SCHEMA (( 'AUTOMOTIVE_DESIGN' ));
ENDSEC;

DATA;
#1 = EDGE_CURVE ( 'NONE', #53, #5, #140, .T. ) ;
#2 = MECHANICAL_DESIGN_GEOMETRIC_PRESENTATION_REPRESENTATION (  '', ( #33 ), #80 ) ;
#3 = PRODUCT_DEFINITION_SHAPE ( 'NONE', 'NONE',  #101 ) ;
#4 = ORIENTED_EDGE ( 'NONE', *, *, #149, .F. ) ;
#5 = VERTEX_POINT ( 'NONE', #71 ) ;
#6 = DIRECTION ( 'NONE',  ( -1.000000000000000000, 0.0000000000000000000, 0.0000000000000000000 ) ) ;
#7 = FILL_AREA_STYLE_COLOUR ( '', #94 ) ;
#8 = DIRECTION ( 'NONE',  ( -0.0000000000000000000, -0.0000000000000000000, -1.000000000000000000 ) ) ;
#9 = DIRECTION ( 'NONE',  ( 0.0000000000000000000, 1.000000000000000000, 0.0000000000000000000 ) ) ;
#10 = AXIS2_PLACEMENT_3D ( 'NONE', #56, #9, #105 ) ;
#11 = VERTEX_POINT ( 'NONE', #170 ) ;
#12 = AXIS2_PLACEMENT_3D ( 'NONE', #91, #70, #151 ) ;
#13 =( LENGTH_UNIT ( ) NAMED_UNIT ( * ) SI_UNIT ( .MILLI., .METRE. ) );
#14 = VECTOR ( 'NONE', #109, 1000.000000000000000 ) ;
#15 = VECTOR ( 'NONE', #57, 1000.000000000000000 ) ;
#16 = ORIENTED_EDGE ( 'NONE', *, *, #129, .T. ) ;
#17 = PRESENTATION_STYLE_ASSIGNMENT (( #159 ) ) ;
#18 = CARTESIAN_POINT ( 'NONE',  ( -62.24479566514875000, 10.00000000000000000, -4.999999999999987600 ) ) ;
#19 = APPLICATION_PROTOCOL_DEFINITION ( 'draft international standard', 'automotive_design', 1998, #41 ) ;
#20 = ADVANCED_FACE ( 'NONE', ( #82 ), #43, .F. ) ;
#21 = EDGE_CURVE ( 'NONE', #84, #11, #64, .T. ) ;
#22 = AXIS2_PLACEMENT_3D ( 'NONE', #115, #131, #141 ) ;
#23 = ADVANCED_FACE ( 'NONE', ( #28 ), #202, .T. ) ;
#24 = CARTESIAN_POINT ( 'NONE',  ( -62.24479566514875000, 10.00000000000000000, -4.999999999999987600 ) ) ;
#25 =( NAMED_UNIT ( * ) SI_UNIT ( $, .STERADIAN. ) SOLID_ANGLE_UNIT ( ) );
#26 = CARTESIAN_POINT ( 'NONE',  ( 4.355204334851265500, 10.00000000000000000, 4.286263797015675000E-017 ) ) ;
#27 = AXIS2_PLACEMENT_3D ( 'NONE', #156, #184, #77 ) ;
#28 = FACE_OUTER_BOUND ( 'NONE', #168, .T. ) ;
#29 = CARTESIAN_POINT ( 'NONE',  ( -64.24281604474863600, 0.0000000000000000000, 5.000000000000000000 ) ) ;
#30 = APPLICATION_CONTEXT ( 'automotive_design' ) ;
#31 = ORIENTED_EDGE ( 'NONE', *, *, #194, .T. ) ;
#32 = EDGE_CURVE ( 'NONE', #50, #127, #92, .T. ) ;
#33 = STYLED_ITEM ( 'NONE', ( #17 ), #107 ) ;
#34 = ADVANCED_FACE ( 'NONE', ( #147 ), #198, .F. ) ;
#35 =( NAMED_UNIT ( * ) PLANE_ANGLE_UNIT ( ) SI_UNIT ( $, .RADIAN. ) );
#36 = ORIENTED_EDGE ( 'NONE', *, *, #1, .T. ) ;
#37 = ADVANCED_FACE ( 'NONE', ( #187 ), #173, .F. ) ;
#38 = CLOSED_SHELL ( 'NONE', ( #23, #146, #37, #34, #73, #20 ) ) ;
#39 =( GEOMETRIC_REPRESENTATION_CONTEXT ( 3 ) GLOBAL_UNCERTAINTY_ASSIGNED_CONTEXT ( ( #200 ) ) GLOBAL_UNIT_ASSIGNED_CONTEXT ( ( #157, #148, #155 ) ) REPRESENTATION_CONTEXT ( 'NONE', 'WORKASPACE' ) );
#40 = ORIENTED_EDGE ( 'NONE', *, *, #118, .F. ) ;
#41 = APPLICATION_CONTEXT ( 'automotive_design' ) ;
#42 = LINE ( 'NONE', #177, #60 ) ;
#43 = PLANE ( 'NONE',  #10 ) ;
#44 = DIRECTION ( 'NONE',  ( 0.0000000000000000000, 0.0000000000000000000, -1.000000000000000000 ) ) ;
#45 = SURFACE_STYLE_USAGE ( .BOTH. , #111 ) ;
#46 = FILL_AREA_STYLE ('',( #144 ) ) ;
#47 = SURFACE_SIDE_STYLE ('',( #143 ) ) ;
#48 = ORIENTED_EDGE ( 'NONE', *, *, #153, .T. ) ;
#49 = CARTESIAN_POINT ( 'NONE',  ( -64.24281604474863600, 10.00000000000000000, -5.000000000000000000 ) ) ;
#50 = VERTEX_POINT ( 'NONE', #172 ) ;
#51 = APPLICATION_PROTOCOL_DEFINITION ( 'draft international standard', 'automotive_design', 1998, #30 ) ;
#52 = LINE ( 'NONE', #125, #15 ) ;
#53 = VERTEX_POINT ( 'NONE', #104 ) ;
#54 = PRODUCT ( '155271', '155271', '', ( #185 ) ) ;
#55 = EDGE_LOOP ( 'NONE', ( #66, #58, #102, #152 ) ) ;
#56 = CARTESIAN_POINT ( 'NONE',  ( 4.355204334851265500, 0.0000000000000000000, 4.286263797015675000E-017 ) ) ;
#57 = DIRECTION ( 'NONE',  ( -0.0000000000000000000, -1.000000000000000000, -0.0000000000000000000 ) ) ;
#58 = ORIENTED_EDGE ( 'NONE', *, *, #129, .F. ) ;
#59 = VECTOR ( 'NONE', #83, 1000.000000000000000 ) ;
#60 = VECTOR ( 'NONE', #93, 1000.000000000000000 ) ;
#61 = DIRECTION ( 'NONE',  ( -0.0000000000000000000, -1.000000000000000000, -0.0000000000000000000 ) ) ;
#62 = VERTEX_POINT ( 'NONE', #139 ) ;
#63 = UNCERTAINTY_MEASURE_WITH_UNIT (LENGTH_MEASURE( 1.000000000000000100E-005 ), #183, 'distance_accuracy_value', 'NONE');
#64 = CIRCLE ( 'NONE', #178, 68.78000000000000100 ) ;
#65 = AXIS2_PLACEMENT_3D ( 'NONE', #89, #174, #68 ) ;
#66 = ORIENTED_EDGE ( 'NONE', *, *, #32, .T. ) ;
#67 = CARTESIAN_POINT ( 'NONE',  ( -62.24479566514875000, 10.00000000000000000, -4.999999999999987600 ) ) ;
#68 = DIRECTION ( 'NONE',  ( 1.000000000000000000, 0.0000000000000000000, 6.077547784707472200E-015 ) ) ;
#69 = COLOUR_RGB ( '',1.000000000000000000, 1.000000000000000000, 1.000000000000000000 ) ;
#70 = DIRECTION ( 'NONE',  ( 0.0000000000000000000, 1.000000000000000000, 0.0000000000000000000 ) ) ;
#71 = CARTESIAN_POINT ( 'NONE',  ( -62.24479566514875000, 10.00000000000000000, -4.999999999999987600 ) ) ;
#72 = AXIS2_PLACEMENT_3D ( 'NONE', #26, #166, #161 ) ;
#73 = ADVANCED_FACE ( 'NONE', ( #203 ), #182, .T. ) ;
#74 = LINE ( 'NONE', #103, #14 ) ;
#75 = CARTESIAN_POINT ( 'NONE',  ( -62.24479566514875000, 0.0000000000000000000, -4.999999999999987600 ) ) ;
#76 = DIRECTION ( 'NONE',  ( -0.0000000000000000000, -1.000000000000000000, -0.0000000000000000000 ) ) ;
#77 = DIRECTION ( 'NONE',  ( 1.000000000000000000, 0.0000000000000000000, 0.0000000000000000000 ) ) ;
#78 = EDGE_LOOP ( 'NONE', ( #175, #31, #36, #96 ) ) ;
#79 = DIRECTION ( 'NONE',  ( 1.000000000000000000, 0.0000000000000000000, 0.0000000000000000000 ) ) ;
#80 =( GEOMETRIC_REPRESENTATION_CONTEXT ( 3 ) GLOBAL_UNCERTAINTY_ASSIGNED_CONTEXT ( ( #165 ) ) GLOBAL_UNIT_ASSIGNED_CONTEXT ( ( #13, #35, #169 ) ) REPRESENTATION_CONTEXT ( 'NONE', 'WORKASPACE' ) );
#81 = EDGE_LOOP ( 'NONE', ( #163, #136, #160, #130 ) ) ;
#82 = FACE_OUTER_BOUND ( 'NONE', #158, .T. ) ;
#83 = DIRECTION ( 'NONE',  ( 1.000000000000000000, 0.0000000000000000000, 0.0000000000000000000 ) ) ;
#84 = VERTEX_POINT ( 'NONE', #201 ) ;
#85 = DIRECTION ( 'NONE',  ( 0.0000000000000000000, 0.0000000000000000000, 1.000000000000000000 ) ) ;
#86 = CARTESIAN_POINT ( 'NONE',  ( -64.24281604474863600, 10.00000000000000000, 5.000000000000000000 ) ) ;
#87 = DIRECTION ( 'NONE',  ( -0.0000000000000000000, -1.000000000000000000, -0.0000000000000000000 ) ) ;
#88 = ORIENTED_EDGE ( 'NONE', *, *, #21, .F. ) ;
#89 = CARTESIAN_POINT ( 'NONE',  ( -64.24281604474863600, 10.00000000000000000, -5.000000000000000000 ) ) ;
#90 = MANIFOLD_SOLID_BREP ( 'Í¹Ì¨-À­Éì1', #38 ) ;
#91 = CARTESIAN_POINT ( 'NONE',  ( 4.355204334851265500, 10.00000000000000000, 4.286263797015675000E-017 ) ) ;
#92 = LINE ( 'NONE', #199, #123 ) ;
#93 = DIRECTION ( 'NONE',  ( -0.0000000000000000000, -1.000000000000000000, -0.0000000000000000000 ) ) ;
#94 = COLOUR_RGB ( '',1.000000000000000000, 1.000000000000000000, 1.000000000000000000 ) ;
#95 = FACE_OUTER_BOUND ( 'NONE', #81, .T. ) ;
#96 = ORIENTED_EDGE ( 'NONE', *, *, #97, .T. ) ;
#97 = EDGE_CURVE ( 'NONE', #5, #117, #74, .T. ) ;
#98 = STYLED_ITEM ( 'NONE', ( #132 ), #90 ) ;
#99 = LINE ( 'NONE', #86, #59 ) ;
#100 = EDGE_LOOP ( 'NONE', ( #48, #119, #192, #16 ) ) ;
#101 = PRODUCT_DEFINITION ( 'Î´Öª', '', #189, #162 ) ;
#102 = ORIENTED_EDGE ( 'NONE', *, *, #1, .F. ) ;
#103 = CARTESIAN_POINT ( 'NONE',  ( -64.24281604474863600, 10.00000000000000000, -5.000000000000000000 ) ) ;
#104 = CARTESIAN_POINT ( 'NONE',  ( -62.24479566514875000, 10.00000000000000000, 5.000000000000000000 ) ) ;
#105 = DIRECTION ( 'NONE',  ( 0.0000000000000000000, -0.0000000000000000000, 1.000000000000000000 ) ) ;
#106 = CIRCLE ( 'NONE', #72, 68.78000000000000100 ) ;
#107 = ADVANCED_BREP_SHAPE_REPRESENTATION ( '155271', ( #90, #27 ), #39 ) ;
#108 = DIRECTION ( 'NONE',  ( 0.0000000000000000000, 0.0000000000000000000, 1.000000000000000000 ) ) ;
#109 = DIRECTION ( 'NONE',  ( -1.000000000000000000, -0.0000000000000000000, -6.077547784707472900E-015 ) ) ;
#110 = ORIENTED_EDGE ( 'NONE', *, *, #112, .T. ) ;
#111 = SURFACE_SIDE_STYLE ('',( #126 ) ) ;
#112 = EDGE_CURVE ( 'NONE', #117, #84, #52, .T. ) ;
#113 =( GEOMETRIC_REPRESENTATION_CONTEXT ( 3 ) GLOBAL_UNCERTAINTY_ASSIGNED_CONTEXT ( ( #63 ) ) GLOBAL_UNIT_ASSIGNED_CONTEXT ( ( #183, #188, #25 ) ) REPRESENTATION_CONTEXT ( 'NONE', 'WORKASPACE' ) );
#114 = PLANE ( 'NONE',  #22 ) ;
#115 = CARTESIAN_POINT ( 'NONE',  ( -64.24281604474863600, 10.00000000000000000, 5.000000000000000000 ) ) ;
#116 = ORIENTED_EDGE ( 'NONE', *, *, #32, .F. ) ;
#117 = VERTEX_POINT ( 'NONE', #49 ) ;
#118 = EDGE_CURVE ( 'NONE', #11, #50, #191, .T. ) ;
#119 = ORIENTED_EDGE ( 'NONE', *, *, #112, .F. ) ;
#120 = LINE ( 'NONE', #186, #204 ) ;
#121 = DIRECTION ( 'NONE',  ( -0.0000000000000000000, -0.0000000000000000000, -1.000000000000000000 ) ) ;
#122 = CARTESIAN_POINT ( 'NONE',  ( 4.355204334851265500, 10.00000000000000000, 4.286263797015675000E-017 ) ) ;
#123 = VECTOR ( 'NONE', #121, 1000.000000000000000 ) ;
#124 = CARTESIAN_POINT ( 'NONE',  ( 4.355204334851265500, 0.0000000000000000000, 4.286263797015675000E-017 ) ) ;
#125 = CARTESIAN_POINT ( 'NONE',  ( -64.24281604474863600, 10.00000000000000000, -5.000000000000000000 ) ) ;
#126 = SURFACE_STYLE_FILL_AREA ( #150 ) ;
#127 = VERTEX_POINT ( 'NONE', #75 ) ;
#128 = CARTESIAN_POINT ( 'NONE',  ( -64.24281604474863600, 0.0000000000000000000, -5.000000000000000000 ) ) ;
#129 = EDGE_CURVE ( 'NONE', #5, #127, #176, .T. ) ;
#130 = ORIENTED_EDGE ( 'NONE', *, *, #149, .T. ) ;
#131 = DIRECTION ( 'NONE',  ( 0.0000000000000000000, 0.0000000000000000000, -1.000000000000000000 ) ) ;
#132 = PRESENTATION_STYLE_ASSIGNMENT (( #45 ) ) ;
#133 = SHAPE_DEFINITION_REPRESENTATION ( #3, #107 ) ;
#134 = PRESENTATION_LAYER_ASSIGNMENT (  '', '', ( #98 ) ) ;
#135 = DIRECTION ( 'NONE',  ( 0.0000000000000000000, 1.000000000000000000, 0.0000000000000000000 ) ) ;
#136 = ORIENTED_EDGE ( 'NONE', *, *, #142, .F. ) ;
#137 = LINE ( 'NONE', #128, #138 ) ;
#138 = VECTOR ( 'NONE', #193, 1000.000000000000000 ) ;
#139 = CARTESIAN_POINT ( 'NONE',  ( -64.24281604474863600, 10.00000000000000000, 5.000000000000000000 ) ) ;
#140 = LINE ( 'NONE', #67, #164 ) ;
#141 = DIRECTION ( 'NONE',  ( -1.000000000000000000, 0.0000000000000000000, -0.0000000000000000000 ) ) ;
#142 = EDGE_CURVE ( 'NONE', #53, #50, #120, .T. ) ;
#143 = SURFACE_STYLE_FILL_AREA ( #46 ) ;
#144 = FILL_AREA_STYLE_COLOUR ( '', #69 ) ;
#145 = AXIS2_PLACEMENT_3D ( 'NONE', #122, #87, #44 ) ;
#146 = ADVANCED_FACE ( 'NONE', ( #95 ), #114, .F. ) ;
#147 = FACE_OUTER_BOUND ( 'NONE', #100, .T. ) ;
#148 =( NAMED_UNIT ( * ) PLANE_ANGLE_UNIT ( ) SI_UNIT ( $, .RADIAN. ) );
#149 = EDGE_CURVE ( 'NONE', #62, #11, #42, .T. ) ;
#150 = FILL_AREA_STYLE ('',( #7 ) ) ;
#151 = DIRECTION ( 'NONE',  ( 0.0000000000000000000, -0.0000000000000000000, 1.000000000000000000 ) ) ;
#152 = ORIENTED_EDGE ( 'NONE', *, *, #142, .T. ) ;
#153 = EDGE_CURVE ( 'NONE', #127, #84, #137, .T. ) ;
#154 = PRODUCT_RELATED_PRODUCT_CATEGORY ( 'part', '', ( #54 ) ) ;
#155 =( NAMED_UNIT ( * ) SI_UNIT ( $, .STERADIAN. ) SOLID_ANGLE_UNIT ( ) );
#156 = CARTESIAN_POINT ( 'NONE',  ( 0.0000000000000000000, 0.0000000000000000000, 0.0000000000000000000 ) ) ;
#157 =( LENGTH_UNIT ( ) NAMED_UNIT ( * ) SI_UNIT ( .MILLI., .METRE. ) );
#158 = EDGE_LOOP ( 'NONE', ( #88, #181, #116, #40 ) ) ;
#159 = SURFACE_STYLE_USAGE ( .BOTH. , #47 ) ;
#160 = ORIENTED_EDGE ( 'NONE', *, *, #194, .F. ) ;
#161 = DIRECTION ( 'NONE',  ( 0.0000000000000000000, 0.0000000000000000000, 1.000000000000000000 ) ) ;
#162 = PRODUCT_DEFINITION_CONTEXT ( 'detailed design', #30, 'design' ) ;
#163 = ORIENTED_EDGE ( 'NONE', *, *, #118, .T. ) ;
#164 = VECTOR ( 'NONE', #8, 1000.000000000000000 ) ;
#165 = UNCERTAINTY_MEASURE_WITH_UNIT (LENGTH_MEASURE( 1.000000000000000100E-005 ), #13, 'distance_accuracy_value', 'NONE');
#166 = DIRECTION ( 'NONE',  ( 0.0000000000000000000, 1.000000000000000000, 0.0000000000000000000 ) ) ;
#167 = AXIS2_PLACEMENT_3D ( 'NONE', #24, #6, #108 ) ;
#168 = EDGE_LOOP ( 'NONE', ( #197, #4, #171, #110 ) ) ;
#169 =( NAMED_UNIT ( * ) SI_UNIT ( $, .STERADIAN. ) SOLID_ANGLE_UNIT ( ) );
#170 = CARTESIAN_POINT ( 'NONE',  ( -64.24281604474863600, 0.0000000000000000000, 5.000000000000000000 ) ) ;
#171 = ORIENTED_EDGE ( 'NONE', *, *, #195, .F. ) ;
#172 = CARTESIAN_POINT ( 'NONE',  ( -62.24479566514875000, 0.0000000000000000000, 5.000000000000000000 ) ) ;
#173 = PLANE ( 'NONE',  #167 ) ;
#174 = DIRECTION ( 'NONE',  ( -6.077547784707472200E-015, 0.0000000000000000000, 1.000000000000000000 ) ) ;
#175 = ORIENTED_EDGE ( 'NONE', *, *, #195, .T. ) ;
#176 = LINE ( 'NONE', #18, #190 ) ;
#177 = CARTESIAN_POINT ( 'NONE',  ( -64.24281604474863600, 10.00000000000000000, 5.000000000000000000 ) ) ;
#178 = AXIS2_PLACEMENT_3D ( 'NONE', #124, #135, #85 ) ;
#179 = PRESENTATION_LAYER_ASSIGNMENT (  '', '', ( #33 ) ) ;
#180 = VECTOR ( 'NONE', #79, 1000.000000000000000 ) ;
#181 = ORIENTED_EDGE ( 'NONE', *, *, #153, .F. ) ;
#182 = PLANE ( 'NONE',  #12 ) ;
#183 =( LENGTH_UNIT ( ) NAMED_UNIT ( * ) SI_UNIT ( .MILLI., .METRE. ) );
#184 = DIRECTION ( 'NONE',  ( 0.0000000000000000000, 0.0000000000000000000, 1.000000000000000000 ) ) ;
#185 = PRODUCT_CONTEXT ( 'NONE', #41, 'mechanical' ) ;
#186 = CARTESIAN_POINT ( 'NONE',  ( -62.24479566514875000, 10.00000000000000000, 5.000000000000000000 ) ) ;
#187 = FACE_OUTER_BOUND ( 'NONE', #55, .T. ) ;
#188 =( NAMED_UNIT ( * ) PLANE_ANGLE_UNIT ( ) SI_UNIT ( $, .RADIAN. ) );
#189 = PRODUCT_DEFINITION_FORMATION_WITH_SPECIFIED_SOURCE ( 'ÈÎºÎ', '', #54, .NOT_KNOWN. ) ;
#190 = VECTOR ( 'NONE', #61, 1000.000000000000000 ) ;
#191 = LINE ( 'NONE', #29, #180 ) ;
#192 = ORIENTED_EDGE ( 'NONE', *, *, #97, .F. ) ;
#193 = DIRECTION ( 'NONE',  ( -1.000000000000000000, -0.0000000000000000000, -6.077547784707472900E-015 ) ) ;
#194 = EDGE_CURVE ( 'NONE', #62, #53, #99, .T. ) ;
#195 = EDGE_CURVE ( 'NONE', #117, #62, #106, .T. ) ;
#196 = MECHANICAL_DESIGN_GEOMETRIC_PRESENTATION_REPRESENTATION (  '', ( #98 ), #113 ) ;
#197 = ORIENTED_EDGE ( 'NONE', *, *, #21, .T. ) ;
#198 = PLANE ( 'NONE',  #65 ) ;
#199 = CARTESIAN_POINT ( 'NONE',  ( -62.24479566514875000, 0.0000000000000000000, -4.999999999999987600 ) ) ;
#200 = UNCERTAINTY_MEASURE_WITH_UNIT (LENGTH_MEASURE( 1.000000000000000100E-005 ), #157, 'distance_accuracy_value', 'NONE');
#201 = CARTESIAN_POINT ( 'NONE',  ( -64.24281604474863600, 0.0000000000000000000, -5.000000000000000000 ) ) ;
#202 = CYLINDRICAL_SURFACE ( 'NONE', #145, 68.78000000000000100 ) ;
#203 = FACE_OUTER_BOUND ( 'NONE', #78, .T. ) ;
#204 = VECTOR ( 'NONE', #76, 1000.000000000000000 ) ;
ENDSEC;
END-ISO-10303-21;
