ISO-10303-21;
HEADER;
FILE_DESCRIPTION (( 'STEP AP214' ),
    '1' );
FILE_NAME ('155266.STEP',
    '2019-06-25T02:33:16',
    ( 'user' ),
    ( 'Î¢ÈíÖÐ¹ú' ),
    'SwSTEP 2.0',
    'SolidWorks 2016',
    '' );
FILE_SCHEMA (( 'AUTOMOTIVE_DESIGN' ));
ENDSEC;

DATA;
#1 = ORIENTED_EDGE ( 'NONE', *, *, #120, .T. ) ;
#2 = PRESENTATION_STYLE_ASSIGNMENT (( #157 ) ) ;
#3 = APPLICATION_CONTEXT ( 'automotive_design' ) ;
#4 = ADVANCED_FACE ( 'NONE', ( #165 ), #70, .F. ) ;
#5 = ORIENTED_EDGE ( 'NONE', *, *, #103, .T. ) ;
#6 = ORIENTED_EDGE ( 'NONE', *, *, #150, .T. ) ;
#7 = EDGE_LOOP ( 'NONE', ( #5, #198, #102, #39 ) ) ;
#8 = SURFACE_STYLE_USAGE ( .BOTH. , #121 ) ;
#9 = CARTESIAN_POINT ( 'NONE',  ( 0.0000000000000000000, 0.0000000000000000000, 0.0000000000000000000 ) ) ;
#10 = CARTESIAN_POINT ( 'NONE',  ( 4.355204334851265500, 10.00000000000000000, 4.286263797015675000E-017 ) ) ;
#11 = CARTESIAN_POINT ( 'NONE',  ( 4.355204334851265500, 0.0000000000000000000, 4.286263797015675000E-017 ) ) ;
#12 = DIRECTION ( 'NONE',  ( 1.000000000000000000, 0.0000000000000000000, 0.0000000000000000000 ) ) ;
#13 = ORIENTED_EDGE ( 'NONE', *, *, #91, .F. ) ;
#14 = CARTESIAN_POINT ( 'NONE',  ( -3.944795665148738400, 10.00000000000000000, -5.000000000000000000 ) ) ;
#15 = ORIENTED_EDGE ( 'NONE', *, *, #124, .F. ) ;
#16 = FACE_OUTER_BOUND ( 'NONE', #105, .T. ) ;
#17 = PRESENTATION_STYLE_ASSIGNMENT (( #8 ) ) ;
#18 = LINE ( 'NONE', #97, #109 ) ;
#19 = LINE ( 'NONE', #101, #106 ) ;
#20 = CLOSED_SHELL ( 'NONE', ( #194, #74, #53, #4, #117, #132 ) ) ;
#21 = EDGE_CURVE ( 'NONE', #176, #122, #146, .T. ) ;
#22 = LINE ( 'NONE', #113, #137 ) ;
#23 = CIRCLE ( 'NONE', #119, 11.45000000000000100 ) ;
#24 = FILL_AREA_STYLE ('',( #123 ) ) ;
#25 = EDGE_LOOP ( 'NONE', ( #6, #199, #42, #151 ) ) ;
#26 = CYLINDRICAL_SURFACE ( 'NONE', #80, 11.45000000000000100 ) ;
#27 = DIRECTION ( 'NONE',  ( -0.0000000000000000000, -1.000000000000000000, -0.0000000000000000000 ) ) ;
#28 = AXIS2_PLACEMENT_3D ( 'NONE', #189, #86, #174 ) ;
#29 = PLANE ( 'NONE',  #90 ) ;
#30 = DIRECTION ( 'NONE',  ( 0.0000000000000000000, -0.0000000000000000000, 1.000000000000000000 ) ) ;
#31 =( NAMED_UNIT ( * ) SI_UNIT ( $, .STERADIAN. ) SOLID_ANGLE_UNIT ( ) );
#32 = FACE_OUTER_BOUND ( 'NONE', #7, .T. ) ;
#33 = VECTOR ( 'NONE', #169, 1000.000000000000000 ) ;
#34 = FILL_AREA_STYLE_COLOUR ( '', #76 ) ;
#35 = CARTESIAN_POINT ( 'NONE',  ( -5.945402443392432600, 10.00000000000000000, 5.000000000000000000 ) ) ;
#36 = ORIENTED_EDGE ( 'NONE', *, *, #150, .F. ) ;
#37 = PRODUCT_CONTEXT ( 'NONE', #139, 'mechanical' ) ;
#38 = EDGE_CURVE ( 'NONE', #131, #61, #18, .T. ) ;
#39 = ORIENTED_EDGE ( 'NONE', *, *, #179, .T. ) ;
#40 = STYLED_ITEM ( 'NONE', ( #2 ), #77 ) ;
#41 = AXIS2_PLACEMENT_3D ( 'NONE', #9, #204, #104 ) ;
#42 = ORIENTED_EDGE ( 'NONE', *, *, #38, .T. ) ;
#43 = SURFACE_STYLE_FILL_AREA ( #172 ) ;
#44 = DIRECTION ( 'NONE',  ( -1.000000000000000000, -0.0000000000000000000, -0.0000000000000000000 ) ) ;
#45 = SHAPE_DEFINITION_REPRESENTATION ( #107, #162 ) ;
#46 = DIRECTION ( 'NONE',  ( -0.0000000000000000000, -1.000000000000000000, -0.0000000000000000000 ) ) ;
#47 = PLANE ( 'NONE',  #177 ) ;
#48 = AXIS2_PLACEMENT_3D ( 'NONE', #202, #99, #187 ) ;
#49 =( LENGTH_UNIT ( ) NAMED_UNIT ( * ) SI_UNIT ( .MILLI., .METRE. ) );
#50 = PLANE ( 'NONE',  #48 ) ;
#51 = DIRECTION ( 'NONE',  ( -0.0000000000000000000, -1.000000000000000000, -0.0000000000000000000 ) ) ;
#52 = ORIENTED_EDGE ( 'NONE', *, *, #103, .F. ) ;
#53 = ADVANCED_FACE ( 'NONE', ( #32 ), #115, .F. ) ;
#54 = STYLED_ITEM ( 'NONE', ( #17 ), #162 ) ;
#55 = ORIENTED_EDGE ( 'NONE', *, *, #124, .T. ) ;
#56 = EDGE_CURVE ( 'NONE', #61, #166, #152, .T. ) ;
#57 = UNCERTAINTY_MEASURE_WITH_UNIT (LENGTH_MEASURE( 1.000000000000000100E-005 ), #116, 'distance_accuracy_value', 'NONE');
#58 = ORIENTED_EDGE ( 'NONE', *, *, #21, .T. ) ;
#59 = PRODUCT_DEFINITION ( 'Î´Öª', '', #75, #181 ) ;
#60 = PRESENTATION_LAYER_ASSIGNMENT (  '', '', ( #40 ) ) ;
#61 = VERTEX_POINT ( 'NONE', #14 ) ;
#62 = VERTEX_POINT ( 'NONE', #127 ) ;
#63 = FACE_OUTER_BOUND ( 'NONE', #25, .T. ) ;
#64 = CARTESIAN_POINT ( 'NONE',  ( -5.945402443392432600, 0.0000000000000000000, -5.000000000000000000 ) ) ;
#65 = CARTESIAN_POINT ( 'NONE',  ( -3.944795665148734800, 0.0000000000000000000, 5.000000000000000000 ) ) ;
#66 = DIRECTION ( 'NONE',  ( 0.0000000000000000000, 0.0000000000000000000, 1.000000000000000000 ) ) ;
#67 = DIRECTION ( 'NONE',  ( -3.469446951953614200E-016, -0.0000000000000000000, -1.000000000000000000 ) ) ;
#68 = SURFACE_SIDE_STYLE ('',( #43 ) ) ;
#69 = FACE_OUTER_BOUND ( 'NONE', #163, .T. ) ;
#70 = PLANE ( 'NONE',  #79 ) ;
#71 = LINE ( 'NONE', #112, #183 ) ;
#72 = DIRECTION ( 'NONE',  ( 0.0000000000000000000, 0.0000000000000000000, 1.000000000000000000 ) ) ;
#73 = APPLICATION_PROTOCOL_DEFINITION ( 'draft international standard', 'automotive_design', 1998, #3 ) ;
#74 = ADVANCED_FACE ( 'NONE', ( #69 ), #50, .F. ) ;
#75 = PRODUCT_DEFINITION_FORMATION_WITH_SPECIFIED_SOURCE ( 'ÈÎºÎ', '', #156, .NOT_KNOWN. ) ;
#76 = COLOUR_RGB ( '',1.000000000000000000, 1.000000000000000000, 1.000000000000000000 ) ;
#77 = MANIFOLD_SOLID_BREP ( 'Í¹Ì¨-À­Éì1', #20 ) ;
#78 = VECTOR ( 'NONE', #44, 1000.000000000000000 ) ;
#79 = AXIS2_PLACEMENT_3D ( 'NONE', #159, #72, #88 ) ;
#80 = AXIS2_PLACEMENT_3D ( 'NONE', #142, #27, #184 ) ;
#81 =( NAMED_UNIT ( * ) PLANE_ANGLE_UNIT ( ) SI_UNIT ( $, .RADIAN. ) );
#82 = MECHANICAL_DESIGN_GEOMETRIC_PRESENTATION_REPRESENTATION (  '', ( #40 ), #167 ) ;
#83 = DIRECTION ( 'NONE',  ( -1.000000000000000000, -0.0000000000000000000, -0.0000000000000000000 ) ) ;
#84 = CARTESIAN_POINT ( 'NONE',  ( 4.355204334851265500, 0.0000000000000000000, 4.286263797015675000E-017 ) ) ;
#85 = CARTESIAN_POINT ( 'NONE',  ( 4.355204334851265500, 10.00000000000000000, 4.286263797015675000E-017 ) ) ;
#86 = DIRECTION ( 'NONE',  ( -1.000000000000000000, 0.0000000000000000000, 3.469446951953614200E-016 ) ) ;
#87 = ORIENTED_EDGE ( 'NONE', *, *, #192, .T. ) ;
#88 = DIRECTION ( 'NONE',  ( 1.000000000000000000, 0.0000000000000000000, -0.0000000000000000000 ) ) ;
#89 = ORIENTED_EDGE ( 'NONE', *, *, #138, .F. ) ;
#90 = AXIS2_PLACEMENT_3D ( 'NONE', #11, #96, #185 ) ;
#91 = EDGE_CURVE ( 'NONE', #122, #173, #22, .T. ) ;
#92 = ORIENTED_EDGE ( 'NONE', *, *, #91, .T. ) ;
#93 = UNCERTAINTY_MEASURE_WITH_UNIT (LENGTH_MEASURE( 1.000000000000000100E-005 ), #49, 'distance_accuracy_value', 'NONE');
#94 = VERTEX_POINT ( 'NONE', #98 ) ;
#95 = CARTESIAN_POINT ( 'NONE',  ( -3.944795665148734800, 10.00000000000000000, 5.000000000000000000 ) ) ;
#96 = DIRECTION ( 'NONE',  ( 0.0000000000000000000, 1.000000000000000000, 0.0000000000000000000 ) ) ;
#97 = CARTESIAN_POINT ( 'NONE',  ( -3.944795665148738400, 10.00000000000000000, -5.000000000000000000 ) ) ;
#98 = CARTESIAN_POINT ( 'NONE',  ( -5.945402443392432600, 0.0000000000000000000, -5.000000000000000000 ) ) ;
#99 = DIRECTION ( 'NONE',  ( 0.0000000000000000000, 0.0000000000000000000, -1.000000000000000000 ) ) ;
#100 = EDGE_LOOP ( 'NONE', ( #87, #15, #89, #160 ) ) ;
#101 = CARTESIAN_POINT ( 'NONE',  ( -3.944795665148738400, 0.0000000000000000000, -5.000000000000000000 ) ) ;
#102 = ORIENTED_EDGE ( 'NONE', *, *, #38, .F. ) ;
#103 = EDGE_CURVE ( 'NONE', #173, #166, #19, .T. ) ;
#104 = DIRECTION ( 'NONE',  ( 1.000000000000000000, 0.0000000000000000000, 0.0000000000000000000 ) ) ;
#105 = EDGE_LOOP ( 'NONE', ( #133, #175, #52, #13 ) ) ;
#106 = VECTOR ( 'NONE', #67, 1000.000000000000000 ) ;
#107 = PRODUCT_DEFINITION_SHAPE ( 'NONE', 'NONE',  #59 ) ;
#108 =( GEOMETRIC_REPRESENTATION_CONTEXT ( 3 ) GLOBAL_UNCERTAINTY_ASSIGNED_CONTEXT ( ( #196 ) ) GLOBAL_UNIT_ASSIGNED_CONTEXT ( ( #140, #81, #168 ) ) REPRESENTATION_CONTEXT ( 'NONE', 'WORKASPACE' ) );
#109 = VECTOR ( 'NONE', #129, 1000.000000000000000 ) ;
#110 = LINE ( 'NONE', #186, #149 ) ;
#111 = DIRECTION ( 'NONE',  ( 0.0000000000000000000, 1.000000000000000000, 0.0000000000000000000 ) ) ;
#112 = CARTESIAN_POINT ( 'NONE',  ( -5.945402443392432600, 10.00000000000000000, 5.000000000000000000 ) ) ;
#113 = CARTESIAN_POINT ( 'NONE',  ( -5.945402443392432600, 0.0000000000000000000, 5.000000000000000000 ) ) ;
#114 = LINE ( 'NONE', #170, #188 ) ;
#115 = PLANE ( 'NONE',  #28 ) ;
#116 =( LENGTH_UNIT ( ) NAMED_UNIT ( * ) SI_UNIT ( .MILLI., .METRE. ) );
#117 = ADVANCED_FACE ( 'NONE', ( #63 ), #47, .T. ) ;
#118 = FACE_OUTER_BOUND ( 'NONE', #136, .T. ) ;
#119 = AXIS2_PLACEMENT_3D ( 'NONE', #10, #111, #200 ) ;
#120 = EDGE_CURVE ( 'NONE', #94, #122, #147, .T. ) ;
#121 = SURFACE_SIDE_STYLE ('',( #180 ) ) ;
#122 = VERTEX_POINT ( 'NONE', #201 ) ;
#123 = FILL_AREA_STYLE_COLOUR ( '', #141 ) ;
#124 = EDGE_CURVE ( 'NONE', #62, #94, #110, .T. ) ;
#125 = CARTESIAN_POINT ( 'NONE',  ( -5.945402443392432600, 10.00000000000000000, 5.000000000000000000 ) ) ;
#126 = DIRECTION ( 'NONE',  ( 1.000000000000000000, 0.0000000000000000000, 0.0000000000000000000 ) ) ;
#127 = CARTESIAN_POINT ( 'NONE',  ( -5.945402443392432600, 10.00000000000000000, -5.000000000000000000 ) ) ;
#128 = PRESENTATION_LAYER_ASSIGNMENT (  '', '', ( #54 ) ) ;
#129 = DIRECTION ( 'NONE',  ( -3.469446951953614200E-016, -0.0000000000000000000, -1.000000000000000000 ) ) ;
#130 = EDGE_CURVE ( 'NONE', #176, #131, #71, .T. ) ;
#131 = VERTEX_POINT ( 'NONE', #155 ) ;
#132 = ADVANCED_FACE ( 'NONE', ( #16 ), #29, .F. ) ;
#133 = ORIENTED_EDGE ( 'NONE', *, *, #120, .F. ) ;
#134 = ORIENTED_EDGE ( 'NONE', *, *, #130, .F. ) ;
#135 = PRODUCT_RELATED_PRODUCT_CATEGORY ( 'part', '', ( #156 ) ) ;
#136 = EDGE_LOOP ( 'NONE', ( #1, #178, #36, #55 ) ) ;
#137 = VECTOR ( 'NONE', #12, 1000.000000000000000 ) ;
#138 = EDGE_CURVE ( 'NONE', #61, #62, #114, .T. ) ;
#139 = APPLICATION_CONTEXT ( 'automotive_design' ) ;
#140 =( LENGTH_UNIT ( ) NAMED_UNIT ( * ) SI_UNIT ( .MILLI., .METRE. ) );
#141 = COLOUR_RGB ( '',1.000000000000000000, 1.000000000000000000, 1.000000000000000000 ) ;
#142 = CARTESIAN_POINT ( 'NONE',  ( 4.355204334851265500, 10.00000000000000000, 4.286263797015675000E-017 ) ) ;
#143 = CARTESIAN_POINT ( 'NONE',  ( -3.944795665148738400, 0.0000000000000000000, -5.000000000000000000 ) ) ;
#144 = DIRECTION ( 'NONE',  ( 0.0000000000000000000, 1.000000000000000000, 0.0000000000000000000 ) ) ;
#145 =( NAMED_UNIT ( * ) PLANE_ANGLE_UNIT ( ) SI_UNIT ( $, .RADIAN. ) );
#146 = LINE ( 'NONE', #35, #182 ) ;
#147 = CIRCLE ( 'NONE', #197, 11.45000000000000100 ) ;
#148 = VECTOR ( 'NONE', #203, 1000.000000000000000 ) ;
#149 = VECTOR ( 'NONE', #46, 1000.000000000000000 ) ;
#150 = EDGE_CURVE ( 'NONE', #62, #176, #23, .T. ) ;
#151 = ORIENTED_EDGE ( 'NONE', *, *, #138, .T. ) ;
#152 = LINE ( 'NONE', #158, #148 ) ;
#153 = LINE ( 'NONE', #95, #33 ) ;
#154 = APPLICATION_PROTOCOL_DEFINITION ( 'draft international standard', 'automotive_design', 1998, #139 ) ;
#155 = CARTESIAN_POINT ( 'NONE',  ( -3.944795665148734800, 10.00000000000000000, 5.000000000000000000 ) ) ;
#156 = PRODUCT ( '155266', '155266', '', ( #37 ) ) ;
#157 = SURFACE_STYLE_USAGE ( .BOTH. , #68 ) ;
#158 = CARTESIAN_POINT ( 'NONE',  ( -3.944795665148738400, 10.00000000000000000, -5.000000000000000000 ) ) ;
#159 = CARTESIAN_POINT ( 'NONE',  ( -5.945402443392432600, 10.00000000000000000, -5.000000000000000000 ) ) ;
#160 = ORIENTED_EDGE ( 'NONE', *, *, #56, .T. ) ;
#161 =( NAMED_UNIT ( * ) PLANE_ANGLE_UNIT ( ) SI_UNIT ( $, .RADIAN. ) );
#162 = ADVANCED_BREP_SHAPE_REPRESENTATION ( '155266', ( #77, #41 ), #108 ) ;
#163 = EDGE_LOOP ( 'NONE', ( #92, #193, #134, #58 ) ) ;
#164 =( GEOMETRIC_REPRESENTATION_CONTEXT ( 3 ) GLOBAL_UNCERTAINTY_ASSIGNED_CONTEXT ( ( #57 ) ) GLOBAL_UNIT_ASSIGNED_CONTEXT ( ( #116, #161, #191 ) ) REPRESENTATION_CONTEXT ( 'NONE', 'WORKASPACE' ) );
#165 = FACE_OUTER_BOUND ( 'NONE', #100, .T. ) ;
#166 = VERTEX_POINT ( 'NONE', #143 ) ;
#167 =( GEOMETRIC_REPRESENTATION_CONTEXT ( 3 ) GLOBAL_UNCERTAINTY_ASSIGNED_CONTEXT ( ( #93 ) ) GLOBAL_UNIT_ASSIGNED_CONTEXT ( ( #49, #145, #31 ) ) REPRESENTATION_CONTEXT ( 'NONE', 'WORKASPACE' ) );
#168 =( NAMED_UNIT ( * ) SI_UNIT ( $, .STERADIAN. ) SOLID_ANGLE_UNIT ( ) );
#169 = DIRECTION ( 'NONE',  ( -0.0000000000000000000, -1.000000000000000000, -0.0000000000000000000 ) ) ;
#170 = CARTESIAN_POINT ( 'NONE',  ( -5.945402443392432600, 10.00000000000000000, -5.000000000000000000 ) ) ;
#171 = DIRECTION ( 'NONE',  ( 0.0000000000000000000, 1.000000000000000000, 0.0000000000000000000 ) ) ;
#172 = FILL_AREA_STYLE ('',( #34 ) ) ;
#173 = VERTEX_POINT ( 'NONE', #65 ) ;
#174 = DIRECTION ( 'NONE',  ( 3.469446951953614200E-016, 0.0000000000000000000, 1.000000000000000000 ) ) ;
#175 = ORIENTED_EDGE ( 'NONE', *, *, #192, .F. ) ;
#176 = VERTEX_POINT ( 'NONE', #125 ) ;
#177 = AXIS2_PLACEMENT_3D ( 'NONE', #85, #144, #30 ) ;
#178 = ORIENTED_EDGE ( 'NONE', *, *, #21, .F. ) ;
#179 = EDGE_CURVE ( 'NONE', #131, #173, #153, .T. ) ;
#180 = SURFACE_STYLE_FILL_AREA ( #24 ) ;
#181 = PRODUCT_DEFINITION_CONTEXT ( 'detailed design', #3, 'design' ) ;
#182 = VECTOR ( 'NONE', #51, 1000.000000000000000 ) ;
#183 = VECTOR ( 'NONE', #126, 1000.000000000000000 ) ;
#184 = DIRECTION ( 'NONE',  ( 0.0000000000000000000, 0.0000000000000000000, -1.000000000000000000 ) ) ;
#185 = DIRECTION ( 'NONE',  ( 0.0000000000000000000, -0.0000000000000000000, 1.000000000000000000 ) ) ;
#186 = CARTESIAN_POINT ( 'NONE',  ( -5.945402443392432600, 10.00000000000000000, -5.000000000000000000 ) ) ;
#187 = DIRECTION ( 'NONE',  ( -1.000000000000000000, 0.0000000000000000000, -0.0000000000000000000 ) ) ;
#188 = VECTOR ( 'NONE', #83, 1000.000000000000000 ) ;
#189 = CARTESIAN_POINT ( 'NONE',  ( -3.944795665148738400, 10.00000000000000000, -5.000000000000000000 ) ) ;
#190 = MECHANICAL_DESIGN_GEOMETRIC_PRESENTATION_REPRESENTATION (  '', ( #54 ), #164 ) ;
#191 =( NAMED_UNIT ( * ) SI_UNIT ( $, .STERADIAN. ) SOLID_ANGLE_UNIT ( ) );
#192 = EDGE_CURVE ( 'NONE', #166, #94, #195, .T. ) ;
#193 = ORIENTED_EDGE ( 'NONE', *, *, #179, .F. ) ;
#194 = ADVANCED_FACE ( 'NONE', ( #118 ), #26, .T. ) ;
#195 = LINE ( 'NONE', #64, #78 ) ;
#196 = UNCERTAINTY_MEASURE_WITH_UNIT (LENGTH_MEASURE( 1.000000000000000100E-005 ), #140, 'distance_accuracy_value', 'NONE');
#197 = AXIS2_PLACEMENT_3D ( 'NONE', #84, #171, #66 ) ;
#198 = ORIENTED_EDGE ( 'NONE', *, *, #56, .F. ) ;
#199 = ORIENTED_EDGE ( 'NONE', *, *, #130, .T. ) ;
#200 = DIRECTION ( 'NONE',  ( 0.0000000000000000000, 0.0000000000000000000, 1.000000000000000000 ) ) ;
#201 = CARTESIAN_POINT ( 'NONE',  ( -5.945402443392432600, 0.0000000000000000000, 5.000000000000000000 ) ) ;
#202 = CARTESIAN_POINT ( 'NONE',  ( -5.945402443392432600, 10.00000000000000000, 5.000000000000000000 ) ) ;
#203 = DIRECTION ( 'NONE',  ( -0.0000000000000000000, -1.000000000000000000, -0.0000000000000000000 ) ) ;
#204 = DIRECTION ( 'NONE',  ( 0.0000000000000000000, 0.0000000000000000000, 1.000000000000000000 ) ) ;
ENDSEC;
END-ISO-10303-21;
