ISO-10303-21;
HEADER;
FILE_DESCRIPTION (( 'STEP AP214' ),
    '1' );
FILE_NAME ('155018.STEP',
    '2019-06-17T03:17:41',
    ( 'user' ),
    ( 'Î¢ÈíÖÐ¹ú' ),
    'SwSTEP 2.0',
    'SolidWorks 2016',
    '' );
FILE_SCHEMA (( 'AUTOMOTIVE_DESIGN' ));
ENDSEC;

DATA;
#1 = CARTESIAN_POINT ( 'NONE',  ( -8.047728454797354700, 1.178414293015061800, -3.658252161918753600 ) ) ;
#2 = ORIENTED_EDGE ( 'NONE', *, *, #52, .F. ) ;
#3 =( LENGTH_UNIT ( ) NAMED_UNIT ( * ) SI_UNIT ( .MILLI., .METRE. ) );
#4 = CARTESIAN_POINT ( 'NONE',  ( -7.388476806030151800, 3.104346687442608200, -5.415869598006729300 ) ) ;
#5 = CARTESIAN_POINT ( 'NONE',  ( -7.998593236967284500, 11.20054243975955900, 3.820388803242900500 ) ) ;
#6 = CARTESIAN_POINT ( 'NONE',  ( -7.846223029275366300, 1.692599317023284300, -4.281680514166672500 ) ) ;
#7 = ORIENTED_EDGE ( 'NONE', *, *, #31, .T. ) ;
#8 = CARTESIAN_POINT ( 'NONE',  ( -7.388729003616916200, 9.396601337344524300, 5.415329757549724100 ) ) ;
#9 = UNCERTAINTY_MEASURE_WITH_UNIT (LENGTH_MEASURE( 1.000000000000000100E-005 ), #160, 'distance_accuracy_value', 'NONE');
#10 = FACE_OUTER_BOUND ( 'NONE', #183, .T. ) ;
#11 = CARTESIAN_POINT ( 'NONE',  ( -7.897697057820099800, 10.94309486350568200, -4.132560523286792400 ) ) ;
#12 = AXIS2_PLACEMENT_3D ( 'NONE', #28, #179, #30 ) ;
#13 = CARTESIAN_POINT ( 'NONE',  ( -8.476610248032761400, 0.2053153464054392500, -1.641351402082175800 ) ) ;
#14 = CARTESIAN_POINT ( 'NONE',  ( -8.189959909924516200, 11.66306630255222700, 3.150631463425336500 ) ) ;
#15 = CARTESIAN_POINT ( 'NONE',  ( -7.897489612480615800, 1.557445735034207500, -4.133176140528322900 ) ) ;
#16 = CARTESIAN_POINT ( 'NONE',  ( -6.963912238450754800, 5.830031589800394300, -6.250000000000004400 ) ) ;
#17 = DIRECTION ( 'NONE',  ( 1.000000000000000000, 0.0000000000000000000, -2.497546408665961600E-016 ) ) ;
#18 = VERTEX_POINT ( 'NONE', #67 ) ;
#19 = CARTESIAN_POINT ( 'NONE',  ( -8.418777995655856800, 12.17217021975811300, 2.039077860791445000 ) ) ;
#20 = DIRECTION ( 'NONE',  ( -0.0000000000000000000, -1.000000000000000000, -0.0000000000000000000 ) ) ;
#21 = CARTESIAN_POINT ( 'NONE',  ( -8.471551011017330900, 0.2162483970302813100, 1.642915089934973100 ) ) ;
#22 = CARTESIAN_POINT ( 'NONE',  ( -7.743098603785761600, 1.976359250220979500, -4.564940717295178800 ) ) ;
#23 = CARTESIAN_POINT ( 'NONE',  ( -8.495949088409130200, 0.1646860278939406300, 1.440282877524285500 ) ) ;
#24 = AXIS2_PLACEMENT_3D ( 'NONE', #106, #212, #68 ) ;
#25 = CARTESIAN_POINT ( 'NONE',  ( -7.080921210440231500, 4.606696899674683500, -6.033624575713811400 ) ) ;
#26 = CARTESIAN_POINT ( 'NONE',  ( -7.691237732242765200, 2.124965041317032500, -4.699696019072026900 ) ) ;
#27 = PRESENTATION_LAYER_ASSIGNMENT (  '', '', ( #125 ) ) ;
#28 = CARTESIAN_POINT ( 'NONE',  ( -17.66479566514873400, 6.250000000000000000, -3.012047097437300400E-016 ) ) ;
#29 = CARTESIAN_POINT ( 'NONE',  ( -7.588499368168664100, 10.06460371090316000, -4.954983198512701700 ) ) ;
#30 = DIRECTION ( 'NONE',  ( 0.0000000000000000000, 0.0000000000000000000, -1.000000000000000000 ) ) ;
#31 = EDGE_CURVE ( 'NONE', #36, #57, #158, .T. ) ;
#32 = CARTESIAN_POINT ( 'NONE',  ( -8.574872205330310100, -0.0001583463363046675900, 0.4173864005549985400 ) ) ;
#33 = UNCERTAINTY_MEASURE_WITH_UNIT (LENGTH_MEASURE( 1.000000000000000100E-005 ), #175, 'distance_accuracy_value', 'NONE');
#34 = FACE_OUTER_BOUND ( 'NONE', #174, .T. ) ;
#35 = CARTESIAN_POINT ( 'NONE',  ( -7.691462182585791400, 10.37568994327534200, -4.699121456265631400 ) ) ;
#36 = VERTEX_POINT ( 'NONE', #63 ) ;
#37 = MECHANICAL_DESIGN_GEOMETRIC_PRESENTATION_REPRESENTATION (  '', ( #125 ), #59 ) ;
#38 = STYLED_ITEM ( 'NONE', ( #133 ), #214 ) ;
#39 = CARTESIAN_POINT ( 'NONE',  ( -7.743725747082736500, 1.974584894476692200, 4.563281369195983000 ) ) ;
#40 = COLOUR_RGB ( '',1.000000000000000000, 1.000000000000000000, 1.000000000000000000 ) ;
#41 = CARTESIAN_POINT ( 'NONE',  ( -8.414662929681721700, 0.3381461742223111900, 2.038458422856201500 ) ) ;
#42 = CARTESIAN_POINT ( 'NONE',  ( 4.355204334851265500, 12.50000000000000000, 4.286263797015675000E-017 ) ) ;
#43 = CARTESIAN_POINT ( 'NONE',  ( -7.743323039255052700, 10.52427516799241900, -4.564346129787344000 ) ) ;
#44 = ADVANCED_BREP_SHAPE_REPRESENTATION ( '155018', ( #214, #84 ), #135 ) ;
#45 = VECTOR ( 'NONE', #213, 1000.000000000000000 ) ;
#46 = CYLINDRICAL_SURFACE ( 'NONE', #185, 6.250000000000000000 ) ;
#47 = CARTESIAN_POINT ( 'NONE',  ( -8.275196640944345800, 11.85575635762565500, 2.793820733887413300 ) ) ;
#48 = CIRCLE ( 'NONE', #159, 6.250000000000000000 ) ;
#49 = CARTESIAN_POINT ( 'NONE',  ( -7.846438962013349900, 10.80797792158297600, -4.281065413023196000 ) ) ;
#50 = CARTESIAN_POINT ( 'NONE',  ( -8.048393191577973800, 1.176790052997954000, 3.656000985158974100 ) ) ;
#51 = SURFACE_SIDE_STYLE ('',( #146 ) ) ;
#52 = EDGE_CURVE ( 'NONE', #189, #18, #48, .T. ) ;
#53 = CARTESIAN_POINT ( 'NONE',  ( -17.66479566514873400, 6.250000000000000000, -3.012047097437300400E-016 ) ) ;
#54 = PRESENTATION_LAYER_ASSIGNMENT (  '', '', ( #38 ) ) ;
#55 = EDGE_LOOP ( 'NONE', ( #109, #200 ) ) ;
#56 = CARTESIAN_POINT ( 'NONE',  ( -8.414262720165460500, 12.16098980255819000, -2.040953374238779100 ) ) ;
#57 = VERTEX_POINT ( 'NONE', #62 ) ;
#58 = CARTESIAN_POINT ( 'NONE',  ( -7.179960736550186500, 4.020402668152450500, -5.842306460184104800 ) ) ;
#59 =( GEOMETRIC_REPRESENTATION_CONTEXT ( 3 ) GLOBAL_UNCERTAINTY_ASSIGNED_CONTEXT ( ( #33 ) ) GLOBAL_UNIT_ASSIGNED_CONTEXT ( ( #175, #186, #203 ) ) REPRESENTATION_CONTEXT ( 'NONE', 'WORKASPACE' ) );
#60 = CARTESIAN_POINT ( 'NONE',  ( -8.190105982045208700, 0.8365979992146814800, 3.150045754789785800 ) ) ;
#61 = CARTESIAN_POINT ( 'NONE',  ( -7.588629898895891100, 10.06501340172149400, 4.954669950863906700 ) ) ;
#62 = CARTESIAN_POINT ( 'NONE',  ( -6.963912238450755700, 6.250000000000000000, -6.250000000000002700 ) ) ;
#63 = CARTESIAN_POINT ( 'NONE',  ( -6.963912238450757500, 6.250000000000000900, 6.249999999999997300 ) ) ;
#64 = ORIENTED_EDGE ( 'NONE', *, *, #81, .T. ) ;
#65 = CARTESIAN_POINT ( 'NONE',  ( -8.495633646049913800, 12.33464821795313100, -1.443083270531984300 ) ) ;
#66 = CARTESIAN_POINT ( 'NONE',  ( -6.963912238450755700, 6.250000000000000000, -6.250000000000002700 ) ) ;
#67 = CARTESIAN_POINT ( 'NONE',  ( -4.964795665148733100, 6.250000000000000900, 6.249999999999996400 ) ) ;
#68 = DIRECTION ( 'NONE',  ( -2.775557561562890900E-016, 0.0000000000000000000, -1.000000000000000000 ) ) ;
#69 = SURFACE_SIDE_STYLE ('',( #199 ) ) ;
#70 = ORIENTED_EDGE ( 'NONE', *, *, #96, .T. ) ;
#71 = CARTESIAN_POINT ( 'NONE',  ( -6.963912238450754800, 5.829889550914884000, 6.249999999999996400 ) ) ;
#72 = CARTESIAN_POINT ( 'NONE',  ( -8.047913864948462500, 11.32203838723124000, -3.657622692659655800 ) ) ;
#73 = CARTESIAN_POINT ( 'NONE',  ( -4.964795665148736600, 6.250000000000000000, -6.250000000000003600 ) ) ;
#74 = APPLICATION_CONTEXT ( 'automotive_design' ) ;
#75 = CARTESIAN_POINT ( 'NONE',  ( -8.471200597832655900, 12.28300713359165500, -1.645635454101467700 ) ) ;
#76 = ADVANCED_FACE ( 'NONE', ( #207 ), #149, .T. ) ;
#77 = PRESENTATION_STYLE_ASSIGNMENT (( #80 ) ) ;
#78 = PRODUCT_CONTEXT ( 'NONE', #74, 'mechanical' ) ;
#79 = CARTESIAN_POINT ( 'NONE',  ( -8.274729238914346800, 0.6452947379424876000, -2.795905146951492600 ) ) ;
#80 = SURFACE_STYLE_USAGE ( .BOTH. , #51 ) ;
#81 = EDGE_CURVE ( 'NONE', #18, #189, #192, .T. ) ;
#82 = FILL_AREA_STYLE_COLOUR ( '', #40 ) ;
#83 = CARTESIAN_POINT ( 'NONE',  ( -17.66479566514873400, 6.250000000000000000, -6.250000000000000000 ) ) ;
#84 = AXIS2_PLACEMENT_3D ( 'NONE', #136, #101, #195 ) ;
#85 = CARTESIAN_POINT ( 'NONE',  ( -7.053551452339807100, 7.691522665164621100, 6.085011209166403000 ) ) ;
#86 = CARTESIAN_POINT ( 'NONE',  ( -7.588283546151911800, 2.436071618636023400, -4.955502636853742300 ) ) ;
#87 = CARTESIAN_POINT ( 'NONE',  ( -8.554332152324736400, 12.45797558091216000, -0.8338298594535197300 ) ) ;
#88 = CARTESIAN_POINT ( 'NONE',  ( -8.476959903942278300, 12.29542517139847000, 1.638656511227176000 ) ) ;
#89 = CARTESIAN_POINT ( 'NONE',  ( -7.297117596319005800, 3.458999675711920600, 5.607076751080982500 ) ) ;
#90 = CARTESIAN_POINT ( 'NONE',  ( -7.297142747077384000, 3.459179929028198200, -5.606997367488534500 ) ) ;
#91 = PRODUCT_RELATED_PRODUCT_CATEGORY ( 'part', '', ( #162 ) ) ;
#92 = COLOUR_RGB ( '',1.000000000000000000, 1.000000000000000000, 1.000000000000000000 ) ;
#93 = CARTESIAN_POINT ( 'NONE',  ( -8.574761760868161900, 12.49992985882356700, -0.4209548141596813300 ) ) ;
#94 = CARTESIAN_POINT ( 'NONE',  ( -7.297345667209501800, 9.041679368428486200, 5.606579059390412600 ) ) ;
#95 = CARTESIAN_POINT ( 'NONE',  ( -7.388814791001479400, 3.103053564577368000, 5.415155067330133900 ) ) ;
#96 = EDGE_CURVE ( 'NONE', #57, #36, #108, .T. ) ;
#97 = CARTESIAN_POINT ( 'NONE',  ( -8.574718692608502800, 0.0001592407999946096500, -0.4221152049949552500 ) ) ;
#98 = CARTESIAN_POINT ( 'NONE',  ( -7.140080222155198400, 4.211705745213472500, 5.922360089828483600 ) ) ;
#99 = CARTESIAN_POINT ( 'NONE',  ( -7.074810309489142100, 7.888191849671315500, -6.045509868139881800 ) ) ;
#100 = CARTESIAN_POINT ( 'NONE',  ( -7.537252844944021900, 9.901577768953108800, 5.076374581045304700 ) ) ;
#101 = DIRECTION ( 'NONE',  ( 0.0000000000000000000, 0.0000000000000000000, 1.000000000000000000 ) ) ;
#102 = CARTESIAN_POINT ( 'NONE',  ( -6.987323880242292300, 5.417439307454325900, -6.208109390366901800 ) ) ;
#103 = VECTOR ( 'NONE', #173, 1000.000000000000000 ) ;
#104 = FILL_AREA_STYLE ('',( #127 ) ) ;
#105 = UNCERTAINTY_MEASURE_WITH_UNIT (LENGTH_MEASURE( 1.000000000000000100E-005 ), #3, 'distance_accuracy_value', 'NONE');
#106 = CARTESIAN_POINT ( 'NONE',  ( -4.964795665148736600, 12.50000000000000000, -6.250000000000001800 ) ) ;
#107 = EDGE_CURVE ( 'NONE', #57, #189, #120, .T. ) ;
#108 = B_SPLINE_CURVE_WITH_KNOTS ( 'NONE', 3,
 ( #166, #171, #148, #99, #163, #168, #208, #170, #29, #35, #43, #49, #11, #119, #72, #182, #122, #222, #56, #75, #65, #87, #93, #197, #177, #88, #19, #47, #14, #191, #5, #180, #124, #205, #118, #61, #100, #8, #94, #154, #201, #112, #85, #151, #129, #134 ),
 .UNSPECIFIED., .F., .F.,
 ( 4, 2, 2, 2, 2, 2, 2, 2, 2, 2, 2, 2, 2, 2, 2, 2, 2, 2, 2, 2, 2, 2, 4 ),
 ( -0.009926002955804766700, -0.008685380943319845300, -0.007444758930834925700, -0.006204136918350006100, -0.005583825912107547200, -0.004963514905865087400, -0.004343203899622628500, -0.003722892893380170400, -0.002482270880895255100, -0.001861959874652797900, -0.001241648868410341600, -1.026855925428948900E-006, 0.001239595156559485400, 0.002480217169044396400, 0.003720839181529310800, 0.004341150187771765400, 0.004961461194014216500, 0.005581772200256669400, 0.006202083206499122200, 0.007442705218984034900, 0.008063016225226491200, 0.008683327231468944100, 0.009923949243953856700 ),
 .UNSPECIFIED. ) ;
#109 = ORIENTED_EDGE ( 'NONE', *, *, #96, .F. ) ;
#110 = CLOSED_SHELL ( 'NONE', ( #216, #76, #144, #204 ) ) ;
#111 = DIRECTION ( 'NONE',  ( 0.0000000000000000000, 0.0000000000000000000, -1.000000000000000000 ) ) ;
#112 = CARTESIAN_POINT ( 'NONE',  ( -7.080998496390035900, 7.893847218530553700, 6.033478578141608000 ) ) ;
#113 = APPLICATION_CONTEXT ( 'automotive_design' ) ;
#114 = CARTESIAN_POINT ( 'NONE',  ( -7.588845815857738800, 2.434311145886178400, 4.954150181063782900 ) ) ;
#115 = APPLICATION_PROTOCOL_DEFINITION ( 'draft international standard', 'automotive_design', 1998, #113 ) ;
#116 = ORIENTED_EDGE ( 'NONE', *, *, #107, .T. ) ;
#117 = ORIENTED_EDGE ( 'NONE', *, *, #52, .T. ) ;
#118 = CARTESIAN_POINT ( 'NONE',  ( -7.691622574443004900, 10.37615918677171000, 4.698711732244039000 ) ) ;
#119 = CARTESIAN_POINT ( 'NONE',  ( -7.998305438323506600, 11.19982328727603600, -3.821314603802171000 ) ) ;
#120 = LINE ( 'NONE', #83, #45 ) ;
#121 = CARTESIAN_POINT ( 'NONE',  ( -8.418371317805791100, 0.3287050444217512500, -2.041585833201386100 ) ) ;
#122 = CARTESIAN_POINT ( 'NONE',  ( -8.274611395043280000, 11.85442492865569400, -2.796160933616183500 ) ) ;
#123 = LINE ( 'NONE', #138, #103 ) ;
#124 = CARTESIAN_POINT ( 'NONE',  ( -7.846657369165883200, 10.80856358158169300, 4.280445593921210300 ) ) ;
#125 = STYLED_ITEM ( 'NONE', ( #77 ), #44 ) ;
#126 = CARTESIAN_POINT ( 'NONE',  ( -6.987328500674892400, 5.418379815318037800, 6.208090251343728400 ) ) ;
#127 = FILL_AREA_STYLE_COLOUR ( '', #92 ) ;
#128 = CARTESIAN_POINT ( 'NONE',  ( -8.554534185872650900, 0.04160600499677559500, 0.8307753176421333000 ) ) ;
#129 = CARTESIAN_POINT ( 'NONE',  ( -6.963912238450759200, 6.670110439763488900, 6.249999999999996400 ) ) ;
#130 = AXIS2_PLACEMENT_3D ( 'NONE', #140, #17, #176 ) ;
#131 = DIRECTION ( 'NONE',  ( -2.775557561562891400E-016, 0.0000000000000000000, -1.000000000000000000 ) ) ;
#132 = SURFACE_STYLE_USAGE ( .BOTH. , #69 ) ;
#133 = PRESENTATION_STYLE_ASSIGNMENT (( #132 ) ) ;
#134 = CARTESIAN_POINT ( 'NONE',  ( -6.963912238450757500, 6.250000000000000900, 6.249999999999997300 ) ) ;
#135 =( GEOMETRIC_REPRESENTATION_CONTEXT ( 3 ) GLOBAL_UNCERTAINTY_ASSIGNED_CONTEXT ( ( #9 ) ) GLOBAL_UNIT_ASSIGNED_CONTEXT ( ( #160, #206, #155 ) ) REPRESENTATION_CONTEXT ( 'NONE', 'WORKASPACE' ) );
#136 = CARTESIAN_POINT ( 'NONE',  ( 0.0000000000000000000, 0.0000000000000000000, 0.0000000000000000000 ) ) ;
#137 = EDGE_LOOP ( 'NONE', ( #217, #7, #116, #164 ) ) ;
#138 = CARTESIAN_POINT ( 'NONE',  ( -17.66479566514873400, 6.250000000000000900, 6.250000000000000000 ) ) ;
#139 = DIRECTION ( 'NONE',  ( 1.000000000000000000, -0.0000000000000000000, -2.775557561562888400E-016 ) ) ;
#140 = CARTESIAN_POINT ( 'NONE',  ( -4.964795665148734800, 6.250000000000000000, -3.826162812928598100E-015 ) ) ;
#141 = PRODUCT_DEFINITION_FORMATION_WITH_SPECIFIED_SOURCE ( 'ÈÎºÎ', '', #162, .NOT_KNOWN. ) ;
#142 = CARTESIAN_POINT ( 'NONE',  ( -7.053492241377783000, 4.808955129912754400, -6.085121983968663000 ) ) ;
#143 = MECHANICAL_DESIGN_GEOMETRIC_PRESENTATION_REPRESENTATION (  '', ( #38 ), #196 ) ;
#144 = ADVANCED_FACE ( 'NONE', ( #34 ), #211, .T. ) ;
#145 = APPLICATION_PROTOCOL_DEFINITION ( 'draft international standard', 'automotive_design', 1998, #74 ) ;
#146 = SURFACE_STYLE_FILL_AREA ( #215 ) ;
#147 = CARTESIAN_POINT ( 'NONE',  ( -7.536927067203629700, 2.599484791188090100, -5.077135833970485700 ) ) ;
#148 = CARTESIAN_POINT ( 'NONE',  ( -6.987312648643838400, 7.081341859506784100, -6.208118299028944500 ) ) ;
#149 = CYLINDRICAL_SURFACE ( 'NONE', #165, 12.93000000000001900 ) ;
#150 = CARTESIAN_POINT ( 'NONE',  ( -6.963912238450757500, 6.250000000000000900, 6.249999999999997300 ) ) ;
#151 = CARTESIAN_POINT ( 'NONE',  ( -6.987339744876695800, 7.082839798666937800, 6.208081338804511500 ) ) ;
#152 = CARTESIAN_POINT ( 'NONE',  ( -8.382296069153316200, 0.4082156809916346900, 2.231028109015742400 ) ) ;
#153 = CARTESIAN_POINT ( 'NONE',  ( -4.964795665148734800, 6.250000000000000000, -3.826162812928598100E-015 ) ) ;
#154 = CARTESIAN_POINT ( 'NONE',  ( -7.180097083266023400, 8.480306446032472000, 5.842038066301184600 ) ) ;
#155 =( NAMED_UNIT ( * ) SI_UNIT ( $, .STERADIAN. ) SOLID_ANGLE_UNIT ( ) );
#156 = CARTESIAN_POINT ( 'NONE',  ( -7.074883255839369100, 4.611267765178988400, 6.045372888661045600 ) ) ;
#157 = CYLINDRICAL_SURFACE ( 'NONE', #12, 6.250000000000000000 ) ;
#158 = B_SPLINE_CURVE_WITH_KNOTS ( 'NONE', 3,
 ( #150, #71, #126, #156, #98, #89, #95, #198, #114, #190, #39, #181, #220, #167, #50, #60, #221, #152, #41, #21, #23, #128, #32, #97, #219, #13, #121, #79, #202, #1, #178, #15, #6, #22, #26, #86, #147, #4, #90, #58, #169, #25, #142, #102, #16, #66 ),
 .UNSPECIFIED., .F., .F.,
 ( 4, 2, 2, 2, 2, 2, 2, 2, 2, 2, 2, 2, 2, 2, 2, 2, 2, 2, 2, 2, 2, 2, 4 ),
 ( 0.009923949243953856700, 0.01116457128396634500, 0.01240519332397883500, 0.01364581536399132500, 0.01426612638399757000, 0.01488643740400381500, 0.01550674842401006000, 0.01612705944401630900, 0.01736768148402879900, 0.01798799250403504400, 0.01860830352404128900, 0.01984892556405378600, 0.02108954760406627600, 0.02233016964407877000, 0.02357079168409126300, 0.02419110270409751200, 0.02481141372410375700, 0.02543172474411000600, 0.02605203576411625100, 0.02729265780412874800, 0.02791296882413499300, 0.02853327984414123800, 0.02977390188415373500 ),
 .UNSPECIFIED. ) ;
#159 = AXIS2_PLACEMENT_3D ( 'NONE', #153, #184, #131 ) ;
#160 =( LENGTH_UNIT ( ) NAMED_UNIT ( * ) SI_UNIT ( .MILLI., .METRE. ) );
#161 =( NAMED_UNIT ( * ) PLANE_ANGLE_UNIT ( ) SI_UNIT ( $, .RADIAN. ) );
#162 = PRODUCT ( '155018', '155018', '', ( #78 ) ) ;
#163 = CARTESIAN_POINT ( 'NONE',  ( -7.139965419720245300, 8.287630071852769100, -5.922579660291068700 ) ) ;
#164 = ORIENTED_EDGE ( 'NONE', *, *, #81, .F. ) ;
#165 = AXIS2_PLACEMENT_3D ( 'NONE', #42, #20, #209 ) ;
#166 = CARTESIAN_POINT ( 'NONE',  ( -6.963912238450755700, 6.250000000000000000, -6.250000000000002700 ) ) ;
#167 = CARTESIAN_POINT ( 'NONE',  ( -7.998776007177658800, 1.299002466167799000, 3.819797085899106800 ) ) ;
#168 = CARTESIAN_POINT ( 'NONE',  ( -7.296913849235148000, 9.040137415831031500, -5.607496709137861600 ) ) ;
#169 = CARTESIAN_POINT ( 'NONE',  ( -7.144211913397287000, 4.212341627663533900, -5.912107826980456300 ) ) ;
#170 = CARTESIAN_POINT ( 'NONE',  ( -7.537151069858224700, 9.901250269523707500, -5.076614159637636600 ) ) ;
#171 = CARTESIAN_POINT ( 'NONE',  ( -6.963912238450750400, 6.669968400881128200, -6.250000000000005300 ) ) ;
#172 = PRODUCT_DEFINITION ( 'Î´Öª', '', #141, #210 ) ;
#173 = DIRECTION ( 'NONE',  ( 1.000000000000000000, -0.0000000000000000000, -2.775557561562888400E-016 ) ) ;
#174 = EDGE_LOOP ( 'NONE', ( #117, #64 ) ) ;
#175 =( LENGTH_UNIT ( ) NAMED_UNIT ( * ) SI_UNIT ( .MILLI., .METRE. ) );
#176 = DIRECTION ( 'NONE',  ( -2.775557561562891400E-016, 0.0000000000000000000, -1.000000000000000000 ) ) ;
#177 = CARTESIAN_POINT ( 'NONE',  ( -8.554470746751215800, 12.45825556530611200, 0.8306163377944590900 ) ) ;
#178 = CARTESIAN_POINT ( 'NONE',  ( -7.998122590273829300, 1.300632092712652900, -3.821906311854767600 ) ) ;
#179 = DIRECTION ( 'NONE',  ( 1.000000000000000000, -0.0000000000000000000, -2.775557561562888400E-016 ) ) ;
#180 = CARTESIAN_POINT ( 'NONE',  ( -7.897937808638108200, 10.94372436248082900, 4.131850997417280300 ) ) ;
#181 = CARTESIAN_POINT ( 'NONE',  ( -7.846873300093542400, 1.690859312739994200, 4.279830297191515400 ) ) ;
#182 = CARTESIAN_POINT ( 'NONE',  ( -8.189626908381898200, 11.66229343389440300, -3.151934079108861000 ) ) ;
#183 = EDGE_LOOP ( 'NONE', ( #70, #193, #2, #194 ) ) ;
#184 = DIRECTION ( 'NONE',  ( 1.000000000000000000, 0.0000000000000000000, -2.497546408665961600E-016 ) ) ;
#185 = AXIS2_PLACEMENT_3D ( 'NONE', #53, #139, #111 ) ;
#186 =( NAMED_UNIT ( * ) PLANE_ANGLE_UNIT ( ) SI_UNIT ( $, .RADIAN. ) );
#187 = SHAPE_DEFINITION_REPRESENTATION ( #218, #44 ) ;
#188 =( NAMED_UNIT ( * ) SI_UNIT ( $, .STERADIAN. ) SOLID_ANGLE_UNIT ( ) );
#189 = VERTEX_POINT ( 'NONE', #73 ) ;
#190 = CARTESIAN_POINT ( 'NONE',  ( -7.691847086963596400, 2.123185806386696400, 4.698136871072886600 ) ) ;
#191 = CARTESIAN_POINT ( 'NONE',  ( -8.048207456500870500, 11.32275657633097200, 3.656631929908847200 ) ) ;
#192 = CIRCLE ( 'NONE', #130, 6.250000000000000000 ) ;
#193 = ORIENTED_EDGE ( 'NONE', *, *, #224, .T. ) ;
#194 = ORIENTED_EDGE ( 'NONE', *, *, #107, .F. ) ;
#195 = DIRECTION ( 'NONE',  ( 1.000000000000000000, 0.0000000000000000000, 0.0000000000000000000 ) ) ;
#196 =( GEOMETRIC_REPRESENTATION_CONTEXT ( 3 ) GLOBAL_UNCERTAINTY_ASSIGNED_CONTEXT ( ( #105 ) ) GLOBAL_UNIT_ASSIGNED_CONTEXT ( ( #3, #161, #188 ) ) REPRESENTATION_CONTEXT ( 'NONE', 'WORKASPACE' ) );
#197 = CARTESIAN_POINT ( 'NONE',  ( -8.574829485345409500, 12.50006996722359000, 0.4188694314321150200 ) ) ;
#198 = CARTESIAN_POINT ( 'NONE',  ( -7.537476974251221800, 2.597686982249293800, 5.075852508498580400 ) ) ;
#199 = SURFACE_STYLE_FILL_AREA ( #104 ) ;
#200 = ORIENTED_EDGE ( 'NONE', *, *, #31, .F. ) ;
#201 = CARTESIAN_POINT ( 'NONE',  ( -7.144327291989114300, 8.288314528545901900, 5.911883905616128300 ) ) ;
#202 = CARTESIAN_POINT ( 'NONE',  ( -8.189479978728993400, 0.8380443717266163900, -3.152522502934529800 ) ) ;
#203 =( NAMED_UNIT ( * ) SI_UNIT ( $, .STERADIAN. ) SOLID_ANGLE_UNIT ( ) );
#204 = ADVANCED_FACE ( 'NONE', ( #223 ), #157, .T. ) ;
#205 = CARTESIAN_POINT ( 'NONE',  ( -7.743501269143844300, 10.52478071665733200, 4.563876229077324700 ) ) ;
#206 =( NAMED_UNIT ( * ) PLANE_ANGLE_UNIT ( ) SI_UNIT ( $, .RADIAN. ) );
#207 = FACE_OUTER_BOUND ( 'NONE', #55, .T. ) ;
#208 = CARTESIAN_POINT ( 'NONE',  ( -7.388561884220692400, 9.395996001795403200, -5.415696500248910400 ) ) ;
#209 = DIRECTION ( 'NONE',  ( 0.0000000000000000000, 0.0000000000000000000, -1.000000000000000000 ) ) ;
#210 = PRODUCT_DEFINITION_CONTEXT ( 'detailed design', #113, 'design' ) ;
#211 = PLANE ( 'NONE',  #24 ) ;
#212 = DIRECTION ( 'NONE',  ( 1.000000000000000000, 0.0000000000000000000, -2.775557561562890900E-016 ) ) ;
#213 = DIRECTION ( 'NONE',  ( 1.000000000000000000, -0.0000000000000000000, -2.775557561562888400E-016 ) ) ;
#214 = MANIFOLD_SOLID_BREP ( 'ÇÐ³ý-À­Éì8', #110 ) ;
#215 = FILL_AREA_STYLE ('',( #82 ) ) ;
#216 = ADVANCED_FACE ( 'NONE', ( #10 ), #46, .T. ) ;
#217 = ORIENTED_EDGE ( 'NONE', *, *, #224, .F. ) ;
#218 = PRODUCT_DEFINITION_SHAPE ( 'NONE', 'NONE',  #172 ) ;
#219 = CARTESIAN_POINT ( 'NONE',  ( -8.554269485775874300, 0.04216129419071696500, -0.8336579569432784900 ) ) ;
#220 = CARTESIAN_POINT ( 'NONE',  ( -7.898145227578734100, 1.555735223927072300, 4.131235235323307700 ) ) ;
#221 = CARTESIAN_POINT ( 'NONE',  ( -8.275077216917914300, 0.6445274928742358300, 2.794082995184433500 ) ) ;
#222 = CARTESIAN_POINT ( 'NONE',  ( -8.381876176693541700, 12.09086922555501300, -2.233415630121065900 ) ) ;
#223 = FACE_OUTER_BOUND ( 'NONE', #137, .T. ) ;
#224 = EDGE_CURVE ( 'NONE', #36, #18, #123, .T. ) ;
ENDSEC;
END-ISO-10303-21;
