ISO-10303-21;
HEADER;
FILE_DESCRIPTION (( 'STEP AP214' ),
    '1' );
FILE_NAME ('155016.STEP',
    '2019-06-17T02:07:33',
    ( 'user' ),
    ( 'Î¢ÈíÖÐ¹ú' ),
    'SwSTEP 2.0',
    'SolidWorks 2016',
    '' );
FILE_SCHEMA (( 'AUTOMOTIVE_DESIGN' ));
ENDSEC;

DATA;
#1 = APPLICATION_CONTEXT ( 'automotive_design' ) ;
#2 = DIRECTION ( 'NONE',  ( 0.0000000000000000000, -0.0000000000000000000, 1.000000000000000000 ) ) ;
#3 = FACE_OUTER_BOUND ( 'NONE', #46, .T. ) ;
#4 = DIRECTION ( 'NONE',  ( -1.000000000000000000, -0.0000000000000000000, -1.746556737377688800E-015 ) ) ;
#5 = AXIS2_PLACEMENT_3D ( 'NONE', #40, #98, #121 ) ;
#6 = DIRECTION ( 'NONE',  ( 0.0000000000000000000, 0.0000000000000000000, -1.000000000000000000 ) ) ;
#7 = CIRCLE ( 'NONE', #114, 20.68000000000000000 ) ;
#8 = EDGE_CURVE ( 'NONE', #52, #160, #162, .T. ) ;
#9 = LINE ( 'NONE', #102, #113 ) ;
#10 = FACE_OUTER_BOUND ( 'NONE', #60, .T. ) ;
#11 = AXIS2_PLACEMENT_3D ( 'NONE', #201, #54, #18 ) ;
#12 = SURFACE_STYLE_FILL_AREA ( #171 ) ;
#13 = VECTOR ( 'NONE', #135, 1000.000000000000000 ) ;
#14 = VECTOR ( 'NONE', #106, 1000.000000000000000 ) ;
#15 = ORIENTED_EDGE ( 'NONE', *, *, #105, .F. ) ;
#16 = SURFACE_STYLE_USAGE ( .BOTH. , #100 ) ;
#17 = FILL_AREA_STYLE_COLOUR ( '', #24 ) ;
#18 = DIRECTION ( 'NONE',  ( 1.000000000000000000, 0.0000000000000000000, 0.0000000000000000000 ) ) ;
#19 = ADVANCED_FACE ( 'NONE', ( #120 ), #23, .F. ) ;
#20 = PRODUCT_DEFINITION ( 'Î´Öª', '', #109, #151 ) ;
#21 = PLANE ( 'NONE',  #93 ) ;
#22 = VERTEX_POINT ( 'NONE', #119 ) ;
#23 = PLANE ( 'NONE',  #63 ) ;
#24 = COLOUR_RGB ( '',1.000000000000000000, 1.000000000000000000, 1.000000000000000000 ) ;
#25 = PRODUCT_RELATED_PRODUCT_CATEGORY ( 'part', '', ( #49 ) ) ;
#26 = ORIENTED_EDGE ( 'NONE', *, *, #179, .F. ) ;
#27 = AXIS2_PLACEMENT_3D ( 'NONE', #128, #66, #65 ) ;
#28 = CARTESIAN_POINT ( 'NONE',  ( 4.355204334851265500, 12.00000000000000000, 4.286263797015675000E-017 ) ) ;
#29 = APPLICATION_PROTOCOL_DEFINITION ( 'draft international standard', 'automotive_design', 1998, #163 ) ;
#30 = CARTESIAN_POINT ( 'NONE',  ( 4.355204334851265500, 0.0000000000000000000, 4.286263797015675000E-017 ) ) ;
#31 = PRESENTATION_LAYER_ASSIGNMENT (  '', '', ( #76 ) ) ;
#32 = LINE ( 'NONE', #141, #96 ) ;
#33 = UNCERTAINTY_MEASURE_WITH_UNIT (LENGTH_MEASURE( 1.000000000000000100E-005 ), #138, 'distance_accuracy_value', 'NONE');
#34 = ADVANCED_FACE ( 'NONE', ( #3 ), #21, .T. ) ;
#35 = CARTESIAN_POINT ( 'NONE',  ( -15.71124527637792000, 12.00000000000000000, -5.000000000000000000 ) ) ;
#36 = ADVANCED_FACE ( 'NONE', ( #10 ), #118, .F. ) ;
#37 = ORIENTED_EDGE ( 'NONE', *, *, #179, .T. ) ;
#38 = EDGE_CURVE ( 'NONE', #52, #173, #182, .T. ) ;
#39 = VECTOR ( 'NONE', #4, 1000.000000000000000 ) ;
#40 = CARTESIAN_POINT ( 'NONE',  ( 4.355204334851265500, 12.00000000000000000, 4.286263797015675000E-017 ) ) ;
#41 = EDGE_LOOP ( 'NONE', ( #69, #195, #15, #153 ) ) ;
#42 = STYLED_ITEM ( 'NONE', ( #91 ), #72 ) ;
#43 = ORIENTED_EDGE ( 'NONE', *, *, #38, .F. ) ;
#44 = EDGE_CURVE ( 'NONE', #108, #57, #183, .T. ) ;
#45 = PLANE ( 'NONE',  #27 ) ;
#46 = EDGE_LOOP ( 'NONE', ( #145, #148, #37, #203 ) ) ;
#47 =( NAMED_UNIT ( * ) SI_UNIT ( $, .STERADIAN. ) SOLID_ANGLE_UNIT ( ) );
#48 = PRODUCT_DEFINITION_SHAPE ( 'NONE', 'NONE',  #20 ) ;
#49 = PRODUCT ( '155016', '155016', '', ( #178 ) ) ;
#50 = FILL_AREA_STYLE_COLOUR ( '', #125 ) ;
#51 = VERTEX_POINT ( 'NONE', #154 ) ;
#52 = VERTEX_POINT ( 'NONE', #194 ) ;
#53 = CARTESIAN_POINT ( 'NONE',  ( 4.355204334851265500, 0.0000000000000000000, 4.286263797015675000E-017 ) ) ;
#54 = DIRECTION ( 'NONE',  ( 0.0000000000000000000, 0.0000000000000000000, 1.000000000000000000 ) ) ;
#55 =( NAMED_UNIT ( * ) PLANE_ANGLE_UNIT ( ) SI_UNIT ( $, .RADIAN. ) );
#56 = CIRCLE ( 'NONE', #104, 20.68000000000000000 ) ;
#57 = VERTEX_POINT ( 'NONE', #115 ) ;
#58 =( NAMED_UNIT ( * ) PLANE_ANGLE_UNIT ( ) SI_UNIT ( $, .RADIAN. ) );
#59 = AXIS2_PLACEMENT_3D ( 'NONE', #139, #6, #143 ) ;
#60 = EDGE_LOOP ( 'NONE', ( #202, #146, #26, #90 ) ) ;
#61 = CARTESIAN_POINT ( 'NONE',  ( 4.355204334851265500, 12.00000000000000000, 4.286263797015675000E-017 ) ) ;
#62 = SURFACE_STYLE_FILL_AREA ( #68 ) ;
#63 = AXIS2_PLACEMENT_3D ( 'NONE', #30, #172, #152 ) ;
#64 = LINE ( 'NONE', #99, #39 ) ;
#65 = DIRECTION ( 'NONE',  ( 1.000000000000000000, 0.0000000000000000000, 1.746556737377688800E-015 ) ) ;
#66 = DIRECTION ( 'NONE',  ( -1.746556737377688800E-015, 0.0000000000000000000, 1.000000000000000000 ) ) ;
#67 = SURFACE_STYLE_USAGE ( .BOTH. , #166 ) ;
#68 = FILL_AREA_STYLE ('',( #17 ) ) ;
#69 = ORIENTED_EDGE ( 'NONE', *, *, #157, .F. ) ;
#70 = CYLINDRICAL_SURFACE ( 'NONE', #5, 20.68000000000000000 ) ;
#71 = MECHANICAL_DESIGN_GEOMETRIC_PRESENTATION_REPRESENTATION (  '', ( #76 ), #155 ) ;
#72 = MANIFOLD_SOLID_BREP ( 'Í¹Ì¨-À­Éì1', #122 ) ;
#73 = DIRECTION ( 'NONE',  ( 0.0000000000000000000, 1.000000000000000000, 0.0000000000000000000 ) ) ;
#74 = VECTOR ( 'NONE', #111, 1000.000000000000000 ) ;
#75 = CARTESIAN_POINT ( 'NONE',  ( -13.72479566514874000, 0.0000000000000000000, -4.999999999999996400 ) ) ;
#76 = STYLED_ITEM ( 'NONE', ( #136 ), #184 ) ;
#77 = ORIENTED_EDGE ( 'NONE', *, *, #157, .T. ) ;
#78 = EDGE_LOOP ( 'NONE', ( #77, #101, #82, #97 ) ) ;
#79 = APPLICATION_PROTOCOL_DEFINITION ( 'draft international standard', 'automotive_design', 1998, #1 ) ;
#80 = SHAPE_DEFINITION_REPRESENTATION ( #48, #184 ) ;
#81 = EDGE_CURVE ( 'NONE', #160, #51, #64, .T. ) ;
#82 = ORIENTED_EDGE ( 'NONE', *, *, #189, .F. ) ;
#83 =( LENGTH_UNIT ( ) NAMED_UNIT ( * ) SI_UNIT ( .MILLI., .METRE. ) );
#84 = MECHANICAL_DESIGN_GEOMETRIC_PRESENTATION_REPRESENTATION (  '', ( #42 ), #168 ) ;
#85 =( NAMED_UNIT ( * ) PLANE_ANGLE_UNIT ( ) SI_UNIT ( $, .RADIAN. ) );
#86 = DIRECTION ( 'NONE',  ( 0.0000000000000000000, 1.000000000000000000, 0.0000000000000000000 ) ) ;
#87 = VECTOR ( 'NONE', #186, 1000.000000000000000 ) ;
#88 = CARTESIAN_POINT ( 'NONE',  ( -15.71124527637792000, 0.0000000000000000000, 5.000000000000000000 ) ) ;
#89 =( NAMED_UNIT ( * ) SI_UNIT ( $, .STERADIAN. ) SOLID_ANGLE_UNIT ( ) );
#90 = ORIENTED_EDGE ( 'NONE', *, *, #199, .T. ) ;
#91 = PRESENTATION_STYLE_ASSIGNMENT (( #16 ) ) ;
#92 =( LENGTH_UNIT ( ) NAMED_UNIT ( * ) SI_UNIT ( .MILLI., .METRE. ) );
#93 = AXIS2_PLACEMENT_3D ( 'NONE', #28, #73, #2 ) ;
#94 = ORIENTED_EDGE ( 'NONE', *, *, #8, .T. ) ;
#95 = DIRECTION ( 'NONE',  ( 0.0000000000000000000, 0.0000000000000000000, 1.000000000000000000 ) ) ;
#96 = VECTOR ( 'NONE', #130, 1000.000000000000000 ) ;
#97 = ORIENTED_EDGE ( 'NONE', *, *, #150, .T. ) ;
#98 = DIRECTION ( 'NONE',  ( -0.0000000000000000000, -1.000000000000000000, -0.0000000000000000000 ) ) ;
#99 = CARTESIAN_POINT ( 'NONE',  ( -15.71124527637792000, 0.0000000000000000000, -5.000000000000000000 ) ) ;
#100 = SURFACE_SIDE_STYLE ('',( #12 ) ) ;
#101 = ORIENTED_EDGE ( 'NONE', *, *, #140, .F. ) ;
#102 = CARTESIAN_POINT ( 'NONE',  ( -13.72479566514873600, 12.00000000000000000, 5.000000000000000000 ) ) ;
#103 = DIRECTION ( 'NONE',  ( 1.000000000000000000, 0.0000000000000000000, 0.0000000000000000000 ) ) ;
#104 = AXIS2_PLACEMENT_3D ( 'NONE', #61, #86, #147 ) ;
#105 = EDGE_CURVE ( 'NONE', #177, #160, #190, .T. ) ;
#106 = DIRECTION ( 'NONE',  ( -0.0000000000000000000, -1.000000000000000000, -0.0000000000000000000 ) ) ;
#107 = ORIENTED_EDGE ( 'NONE', *, *, #150, .F. ) ;
#108 = VERTEX_POINT ( 'NONE', #131 ) ;
#109 = PRODUCT_DEFINITION_FORMATION_WITH_SPECIFIED_SOURCE ( 'ÈÎºÎ', '', #49, .NOT_KNOWN. ) ;
#110 = EDGE_LOOP ( 'NONE', ( #132, #107, #43, #94 ) ) ;
#111 = DIRECTION ( 'NONE',  ( -3.469446951953615200E-016, -0.0000000000000000000, -1.000000000000000000 ) ) ;
#112 = LINE ( 'NONE', #88, #13 ) ;
#113 = VECTOR ( 'NONE', #137, 1000.000000000000000 ) ;
#114 = AXIS2_PLACEMENT_3D ( 'NONE', #53, #187, #95 ) ;
#115 = CARTESIAN_POINT ( 'NONE',  ( -13.72479566514873600, 12.00000000000000000, 5.000000000000000000 ) ) ;
#116 = CARTESIAN_POINT ( 'NONE',  ( -15.71124527637792000, 12.00000000000000000, -5.000000000000000000 ) ) ;
#117 = ORIENTED_EDGE ( 'NONE', *, *, #199, .F. ) ;
#118 = PLANE ( 'NONE',  #191 ) ;
#119 = CARTESIAN_POINT ( 'NONE',  ( -15.71124527637792000, 0.0000000000000000000, 5.000000000000000000 ) ) ;
#120 = FACE_OUTER_BOUND ( 'NONE', #41, .T. ) ;
#121 = DIRECTION ( 'NONE',  ( 0.0000000000000000000, 0.0000000000000000000, -1.000000000000000000 ) ) ;
#122 = CLOSED_SHELL ( 'NONE', ( #134, #123, #36, #198, #34, #19 ) ) ;
#123 = ADVANCED_FACE ( 'NONE', ( #185 ), #144, .F. ) ;
#124 = DIRECTION ( 'NONE',  ( -1.000000000000000000, -0.0000000000000000000, -1.746556737377688800E-015 ) ) ;
#125 = COLOUR_RGB ( '',1.000000000000000000, 1.000000000000000000, 1.000000000000000000 ) ;
#126 = CARTESIAN_POINT ( 'NONE',  ( -15.71124527637792000, 12.00000000000000000, -5.000000000000000000 ) ) ;
#127 = CARTESIAN_POINT ( 'NONE',  ( -13.72479566514874000, 12.00000000000000000, -4.999999999999996400 ) ) ;
#128 = CARTESIAN_POINT ( 'NONE',  ( -15.71124527637792000, 12.00000000000000000, -5.000000000000000000 ) ) ;
#129 = DIRECTION ( 'NONE',  ( 3.469446951953615200E-016, 0.0000000000000000000, 1.000000000000000000 ) ) ;
#130 = DIRECTION ( 'NONE',  ( -0.0000000000000000000, -1.000000000000000000, -0.0000000000000000000 ) ) ;
#131 = CARTESIAN_POINT ( 'NONE',  ( -15.71124527637792000, 12.00000000000000000, 5.000000000000000000 ) ) ;
#132 = ORIENTED_EDGE ( 'NONE', *, *, #81, .T. ) ;
#133 = CARTESIAN_POINT ( 'NONE',  ( -13.72479566514874000, 12.00000000000000000, -4.999999999999996400 ) ) ;
#134 = ADVANCED_FACE ( 'NONE', ( #149 ), #70, .T. ) ;
#135 = DIRECTION ( 'NONE',  ( 1.000000000000000000, 0.0000000000000000000, 0.0000000000000000000 ) ) ;
#136 = PRESENTATION_STYLE_ASSIGNMENT (( #67 ) ) ;
#137 = DIRECTION ( 'NONE',  ( -0.0000000000000000000, -1.000000000000000000, -0.0000000000000000000 ) ) ;
#138 =( LENGTH_UNIT ( ) NAMED_UNIT ( * ) SI_UNIT ( .MILLI., .METRE. ) );
#139 = CARTESIAN_POINT ( 'NONE',  ( -15.71124527637792000, 12.00000000000000000, 5.000000000000000000 ) ) ;
#140 = EDGE_CURVE ( 'NONE', #108, #22, #32, .T. ) ;
#141 = CARTESIAN_POINT ( 'NONE',  ( -15.71124527637792000, 12.00000000000000000, 5.000000000000000000 ) ) ;
#142 = UNCERTAINTY_MEASURE_WITH_UNIT (LENGTH_MEASURE( 1.000000000000000100E-005 ), #83, 'distance_accuracy_value', 'NONE');
#143 = DIRECTION ( 'NONE',  ( -1.000000000000000000, 0.0000000000000000000, -0.0000000000000000000 ) ) ;
#144 = PLANE ( 'NONE',  #59 ) ;
#145 = ORIENTED_EDGE ( 'NONE', *, *, #189, .T. ) ;
#146 = ORIENTED_EDGE ( 'NONE', *, *, #8, .F. ) ;
#147 = DIRECTION ( 'NONE',  ( 0.0000000000000000000, 0.0000000000000000000, 1.000000000000000000 ) ) ;
#148 = ORIENTED_EDGE ( 'NONE', *, *, #44, .T. ) ;
#149 = FACE_OUTER_BOUND ( 'NONE', #78, .T. ) ;
#150 = EDGE_CURVE ( 'NONE', #173, #51, #158, .T. ) ;
#151 = PRODUCT_DEFINITION_CONTEXT ( 'detailed design', #1, 'design' ) ;
#152 = DIRECTION ( 'NONE',  ( 0.0000000000000000000, -0.0000000000000000000, 1.000000000000000000 ) ) ;
#153 = ORIENTED_EDGE ( 'NONE', *, *, #159, .F. ) ;
#154 = CARTESIAN_POINT ( 'NONE',  ( -15.71124527637792000, 0.0000000000000000000, -5.000000000000000000 ) ) ;
#155 =( GEOMETRIC_REPRESENTATION_CONTEXT ( 3 ) GLOBAL_UNCERTAINTY_ASSIGNED_CONTEXT ( ( #33 ) ) GLOBAL_UNIT_ASSIGNED_CONTEXT ( ( #138, #58, #47 ) ) REPRESENTATION_CONTEXT ( 'NONE', 'WORKASPACE' ) );
#156 = CARTESIAN_POINT ( 'NONE',  ( -13.72479566514874000, 12.00000000000000000, -4.999999999999996400 ) ) ;
#157 = EDGE_CURVE ( 'NONE', #51, #22, #7, .T. ) ;
#158 = LINE ( 'NONE', #116, #14 ) ;
#159 = EDGE_CURVE ( 'NONE', #22, #177, #112, .T. ) ;
#160 = VERTEX_POINT ( 'NONE', #180 ) ;
#161 = VECTOR ( 'NONE', #124, 1000.000000000000000 ) ;
#162 = LINE ( 'NONE', #133, #188 ) ;
#163 = APPLICATION_CONTEXT ( 'automotive_design' ) ;
#164 = FACE_OUTER_BOUND ( 'NONE', #110, .T. ) ;
#165 = ORIENTED_EDGE ( 'NONE', *, *, #159, .T. ) ;
#166 = SURFACE_SIDE_STYLE ('',( #62 ) ) ;
#167 = UNCERTAINTY_MEASURE_WITH_UNIT (LENGTH_MEASURE( 1.000000000000000100E-005 ), #92, 'distance_accuracy_value', 'NONE');
#168 =( GEOMETRIC_REPRESENTATION_CONTEXT ( 3 ) GLOBAL_UNCERTAINTY_ASSIGNED_CONTEXT ( ( #142 ) ) GLOBAL_UNIT_ASSIGNED_CONTEXT ( ( #83, #55, #196 ) ) REPRESENTATION_CONTEXT ( 'NONE', 'WORKASPACE' ) );
#169 = ORIENTED_EDGE ( 'NONE', *, *, #44, .F. ) ;
#170 = PRESENTATION_LAYER_ASSIGNMENT (  '', '', ( #42 ) ) ;
#171 = FILL_AREA_STYLE ('',( #50 ) ) ;
#172 = DIRECTION ( 'NONE',  ( 0.0000000000000000000, 1.000000000000000000, 0.0000000000000000000 ) ) ;
#173 = VERTEX_POINT ( 'NONE', #35 ) ;
#174 = CARTESIAN_POINT ( 'NONE',  ( -15.71124527637792000, 12.00000000000000000, 5.000000000000000000 ) ) ;
#175 = VECTOR ( 'NONE', #103, 1000.000000000000000 ) ;
#176 = ORIENTED_EDGE ( 'NONE', *, *, #140, .T. ) ;
#177 = VERTEX_POINT ( 'NONE', #181 ) ;
#178 = PRODUCT_CONTEXT ( 'NONE', #163, 'mechanical' ) ;
#179 = EDGE_CURVE ( 'NONE', #57, #52, #200, .T. ) ;
#180 = CARTESIAN_POINT ( 'NONE',  ( -13.72479566514874000, 0.0000000000000000000, -4.999999999999996400 ) ) ;
#181 = CARTESIAN_POINT ( 'NONE',  ( -13.72479566514873600, 0.0000000000000000000, 5.000000000000000000 ) ) ;
#182 = LINE ( 'NONE', #126, #161 ) ;
#183 = LINE ( 'NONE', #174, #175 ) ;
#184 = ADVANCED_BREP_SHAPE_REPRESENTATION ( '155016', ( #72, #11 ), #204 ) ;
#185 = FACE_OUTER_BOUND ( 'NONE', #193, .T. ) ;
#186 = DIRECTION ( 'NONE',  ( -3.469446951953615200E-016, -0.0000000000000000000, -1.000000000000000000 ) ) ;
#187 = DIRECTION ( 'NONE',  ( 0.0000000000000000000, 1.000000000000000000, 0.0000000000000000000 ) ) ;
#188 = VECTOR ( 'NONE', #197, 1000.000000000000000 ) ;
#189 = EDGE_CURVE ( 'NONE', #173, #108, #56, .T. ) ;
#190 = LINE ( 'NONE', #75, #87 ) ;
#191 = AXIS2_PLACEMENT_3D ( 'NONE', #156, #192, #129 ) ;
#192 = DIRECTION ( 'NONE',  ( -1.000000000000000000, 0.0000000000000000000, 3.469446951953615200E-016 ) ) ;
#193 = EDGE_LOOP ( 'NONE', ( #165, #117, #169, #176 ) ) ;
#194 = CARTESIAN_POINT ( 'NONE',  ( -13.72479566514874000, 12.00000000000000000, -4.999999999999996400 ) ) ;
#195 = ORIENTED_EDGE ( 'NONE', *, *, #81, .F. ) ;
#196 =( NAMED_UNIT ( * ) SI_UNIT ( $, .STERADIAN. ) SOLID_ANGLE_UNIT ( ) );
#197 = DIRECTION ( 'NONE',  ( -0.0000000000000000000, -1.000000000000000000, -0.0000000000000000000 ) ) ;
#198 = ADVANCED_FACE ( 'NONE', ( #164 ), #45, .F. ) ;
#199 = EDGE_CURVE ( 'NONE', #57, #177, #9, .T. ) ;
#200 = LINE ( 'NONE', #127, #74 ) ;
#201 = CARTESIAN_POINT ( 'NONE',  ( 0.0000000000000000000, 0.0000000000000000000, 0.0000000000000000000 ) ) ;
#202 = ORIENTED_EDGE ( 'NONE', *, *, #105, .T. ) ;
#203 = ORIENTED_EDGE ( 'NONE', *, *, #38, .T. ) ;
#204 =( GEOMETRIC_REPRESENTATION_CONTEXT ( 3 ) GLOBAL_UNCERTAINTY_ASSIGNED_CONTEXT ( ( #167 ) ) GLOBAL_UNIT_ASSIGNED_CONTEXT ( ( #92, #85, #89 ) ) REPRESENTATION_CONTEXT ( 'NONE', 'WORKASPACE' ) );
ENDSEC;
END-ISO-10303-21;
