ISO-10303-21;
HEADER;
FILE_DESCRIPTION (( 'STEP AP214' ),
    '1' );
FILE_NAME ('155010.STEP',
    '2019-06-17T01:17:50',
    ( 'user' ),
    ( 'Î¢ÈíÖÐ¹ú' ),
    'SwSTEP 2.0',
    'SolidWorks 2016',
    '' );
FILE_SCHEMA (( 'AUTOMOTIVE_DESIGN' ));
ENDSEC;

DATA;
#1 = DIRECTION ( 'NONE',  ( -1.000000000000000000, 0.0000000000000000000, -0.0000000000000000000 ) ) ;
#2 = DIRECTION ( 'NONE',  ( -2.891205793294674400E-016, -0.0000000000000000000, -1.000000000000000000 ) ) ;
#3 = PRODUCT_DEFINITION_CONTEXT ( 'detailed design', #192, 'design' ) ;
#4 = FILL_AREA_STYLE_COLOUR ( '', #90 ) ;
#5 = ORIENTED_EDGE ( 'NONE', *, *, #32, .T. ) ;
#6 = CARTESIAN_POINT ( 'NONE',  ( 2.980431626364514300, 0.0000000000000000000, -3.000000000000000000 ) ) ;
#7 = LINE ( 'NONE', #6, #152 ) ;
#8 = VERTEX_POINT ( 'NONE', #164 ) ;
#9 = AXIS2_PLACEMENT_3D ( 'NONE', #199, #106, #1 ) ;
#10 = VERTEX_POINT ( 'NONE', #16 ) ;
#11 = DIRECTION ( 'NONE',  ( -0.0000000000000000000, -1.000000000000000000, -0.0000000000000000000 ) ) ;
#12 = MECHANICAL_DESIGN_GEOMETRIC_PRESENTATION_REPRESENTATION (  '', ( #27 ), #204 ) ;
#13 = DIRECTION ( 'NONE',  ( -0.0000000000000000000, -1.000000000000000000, -0.0000000000000000000 ) ) ;
#14 = VECTOR ( 'NONE', #123, 1000.000000000000000 ) ;
#15 = CARTESIAN_POINT ( 'NONE',  ( 2.980431626364512500, 0.0000000000000000000, 3.000000000000000000 ) ) ;
#16 = CARTESIAN_POINT ( 'NONE',  ( 5.055204334851262100, 0.0000000000000000000, -3.000000000000008900 ) ) ;
#17 = ORIENTED_EDGE ( 'NONE', *, *, #91, .T. ) ;
#18 = LINE ( 'NONE', #134, #34 ) ;
#19 = CARTESIAN_POINT ( 'NONE',  ( 2.980431626364514300, 12.00000000000000000, -3.000000000000000000 ) ) ;
#20 = DIRECTION ( 'NONE',  ( -1.000000000000000000, -0.0000000000000000000, 4.180514494144377500E-015 ) ) ;
#21 = SURFACE_SIDE_STYLE ('',( #179 ) ) ;
#22 = PRESENTATION_LAYER_ASSIGNMENT (  '', '', ( #140 ) ) ;
#23 = ORIENTED_EDGE ( 'NONE', *, *, #188, .F. ) ;
#24 = ORIENTED_EDGE ( 'NONE', *, *, #107, .F. ) ;
#25 = AXIS2_PLACEMENT_3D ( 'NONE', #139, #155, #57 ) ;
#26 = ORIENTED_EDGE ( 'NONE', *, *, #75, .F. ) ;
#27 = STYLED_ITEM ( 'NONE', ( #132 ), #183 ) ;
#28 = LINE ( 'NONE', #87, #105 ) ;
#29 = DIRECTION ( 'NONE',  ( 2.891205793294674400E-016, 0.0000000000000000000, 1.000000000000000000 ) ) ;
#30 = EDGE_CURVE ( 'NONE', #157, #84, #89, .T. ) ;
#31 = ADVANCED_BREP_SHAPE_REPRESENTATION ( '155010', ( #183, #146 ), #175 ) ;
#32 = EDGE_CURVE ( 'NONE', #8, #69, #79, .T. ) ;
#33 = DIRECTION ( 'NONE',  ( 0.0000000000000000000, 0.0000000000000000000, -1.000000000000000000 ) ) ;
#34 = VECTOR ( 'NONE', #187, 1000.000000000000000 ) ;
#35 = ORIENTED_EDGE ( 'NONE', *, *, #48, .T. ) ;
#36 = CARTESIAN_POINT ( 'NONE',  ( 5.055204334851262100, 12.00000000000000000, -3.000000000000008900 ) ) ;
#37 = FILL_AREA_STYLE ('',( #4 ) ) ;
#38 =( LENGTH_UNIT ( ) NAMED_UNIT ( * ) SI_UNIT ( .MILLI., .METRE. ) );
#39 =( LENGTH_UNIT ( ) NAMED_UNIT ( * ) SI_UNIT ( .MILLI., .METRE. ) );
#40 = AXIS2_PLACEMENT_3D ( 'NONE', #147, #185, #29 ) ;
#41 = ORIENTED_EDGE ( 'NONE', *, *, #107, .T. ) ;
#42 = EDGE_LOOP ( 'NONE', ( #78, #5, #35, #182 ) ) ;
#43 = LINE ( 'NONE', #153, #135 ) ;
#44 = FACE_OUTER_BOUND ( 'NONE', #144, .T. ) ;
#45 = ADVANCED_FACE ( 'NONE', ( #96 ), #99, .T. ) ;
#46 = PRODUCT_DEFINITION_FORMATION_WITH_SPECIFIED_SOURCE ( 'ÈÎºÎ', '', #92, .NOT_KNOWN. ) ;
#47 = FACE_OUTER_BOUND ( 'NONE', #42, .T. ) ;
#48 = EDGE_CURVE ( 'NONE', #69, #61, #94, .T. ) ;
#49 = FACE_OUTER_BOUND ( 'NONE', #116, .T. ) ;
#50 = PLANE ( 'NONE',  #9 ) ;
#51 = CARTESIAN_POINT ( 'NONE',  ( 4.355204334851265500, 12.00000000000000000, 4.286263797015675000E-017 ) ) ;
#52 = PLANE ( 'NONE',  #172 ) ;
#53 = VECTOR ( 'NONE', #11, 1000.000000000000000 ) ;
#54 = DIRECTION ( 'NONE',  ( 0.0000000000000000000, 1.000000000000000000, 0.0000000000000000000 ) ) ;
#55 = CARTESIAN_POINT ( 'NONE',  ( 2.980431626364514300, 12.00000000000000000, -3.000000000000000000 ) ) ;
#56 = SURFACE_STYLE_USAGE ( .BOTH. , #154 ) ;
#57 = DIRECTION ( 'NONE',  ( 1.000000000000000000, 0.0000000000000000000, -4.180514494144377500E-015 ) ) ;
#58 =( NAMED_UNIT ( * ) SI_UNIT ( $, .STERADIAN. ) SOLID_ANGLE_UNIT ( ) );
#59 = ORIENTED_EDGE ( 'NONE', *, *, #156, .F. ) ;
#60 = CIRCLE ( 'NONE', #101, 3.299999999999999800 ) ;
#61 = VERTEX_POINT ( 'NONE', #36 ) ;
#62 = ORIENTED_EDGE ( 'NONE', *, *, #115, .F. ) ;
#63 = FACE_OUTER_BOUND ( 'NONE', #186, .T. ) ;
#64 = ORIENTED_EDGE ( 'NONE', *, *, #30, .T. ) ;
#65 = EDGE_CURVE ( 'NONE', #8, #84, #68, .T. ) ;
#66 = DIRECTION ( 'NONE',  ( 0.0000000000000000000, 0.0000000000000000000, 1.000000000000000000 ) ) ;
#67 = CLOSED_SHELL ( 'NONE', ( #45, #131, #130, #193, #129, #119 ) ) ;
#68 = LINE ( 'NONE', #81, #53 ) ;
#69 = VERTEX_POINT ( 'NONE', #124 ) ;
#70 = CARTESIAN_POINT ( 'NONE',  ( 2.980431626364514300, 0.0000000000000000000, -3.000000000000000000 ) ) ;
#71 =( NAMED_UNIT ( * ) PLANE_ANGLE_UNIT ( ) SI_UNIT ( $, .RADIAN. ) );
#72 = CARTESIAN_POINT ( 'NONE',  ( 0.0000000000000000000, 0.0000000000000000000, 0.0000000000000000000 ) ) ;
#73 = PRODUCT_DEFINITION_SHAPE ( 'NONE', 'NONE',  #184 ) ;
#74 = DIRECTION ( 'NONE',  ( 0.0000000000000000000, 0.0000000000000000000, 1.000000000000000000 ) ) ;
#75 = EDGE_CURVE ( 'NONE', #61, #10, #190, .T. ) ;
#76 = SURFACE_STYLE_FILL_AREA ( #37 ) ;
#77 = VERTEX_POINT ( 'NONE', #202 ) ;
#78 = ORIENTED_EDGE ( 'NONE', *, *, #115, .T. ) ;
#79 = LINE ( 'NONE', #125, #95 ) ;
#80 = ORIENTED_EDGE ( 'NONE', *, *, #48, .F. ) ;
#81 = CARTESIAN_POINT ( 'NONE',  ( 2.980431626364512500, 12.00000000000000000, 3.000000000000000000 ) ) ;
#82 = DIRECTION ( 'NONE',  ( 0.0000000000000000000, -0.0000000000000000000, 1.000000000000000000 ) ) ;
#83 = DIRECTION ( 'NONE',  ( -0.0000000000000000000, -1.000000000000000000, -0.0000000000000000000 ) ) ;
#84 = VERTEX_POINT ( 'NONE', #15 ) ;
#85 = LINE ( 'NONE', #55, #117 ) ;
#86 = DIRECTION ( 'NONE',  ( 1.000000000000000000, 0.0000000000000000000, 0.0000000000000000000 ) ) ;
#87 = CARTESIAN_POINT ( 'NONE',  ( 5.055204334851263900, 12.00000000000000000, 3.000000000000000000 ) ) ;
#88 = APPLICATION_PROTOCOL_DEFINITION ( 'draft international standard', 'automotive_design', 1998, #110 ) ;
#89 = CIRCLE ( 'NONE', #159, 3.299999999999999800 ) ;
#90 = COLOUR_RGB ( '',1.000000000000000000, 1.000000000000000000, 1.000000000000000000 ) ;
#91 = EDGE_CURVE ( 'NONE', #84, #142, #18, .T. ) ;
#92 = PRODUCT ( '155010', '155010', '', ( #93 ) ) ;
#93 = PRODUCT_CONTEXT ( 'NONE', #110, 'mechanical' ) ;
#94 = LINE ( 'NONE', #108, #98 ) ;
#95 = VECTOR ( 'NONE', #86, 1000.000000000000000 ) ;
#96 = FACE_OUTER_BOUND ( 'NONE', #113, .T. ) ;
#97 = ORIENTED_EDGE ( 'NONE', *, *, #91, .F. ) ;
#98 = VECTOR ( 'NONE', #2, 1000.000000000000000 ) ;
#99 = CYLINDRICAL_SURFACE ( 'NONE', #137, 3.299999999999999800 ) ;
#100 = UNCERTAINTY_MEASURE_WITH_UNIT (LENGTH_MEASURE( 1.000000000000000100E-005 ), #38, 'distance_accuracy_value', 'NONE');
#101 = AXIS2_PLACEMENT_3D ( 'NONE', #51, #163, #66 ) ;
#102 = CARTESIAN_POINT ( 'NONE',  ( 4.355204334851265500, 0.0000000000000000000, 4.286263797015675000E-017 ) ) ;
#103 = CARTESIAN_POINT ( 'NONE',  ( 5.055204334851262100, 12.00000000000000000, -3.000000000000008900 ) ) ;
#104 = ORIENTED_EDGE ( 'NONE', *, *, #156, .T. ) ;
#105 = VECTOR ( 'NONE', #126, 1000.000000000000000 ) ;
#106 = DIRECTION ( 'NONE',  ( 0.0000000000000000000, 0.0000000000000000000, -1.000000000000000000 ) ) ;
#107 = EDGE_CURVE ( 'NONE', #77, #157, #85, .T. ) ;
#108 = CARTESIAN_POINT ( 'NONE',  ( 5.055204334851262100, 12.00000000000000000, -3.000000000000008900 ) ) ;
#109 = DIRECTION ( 'NONE',  ( -2.891205793294674400E-016, -0.0000000000000000000, -1.000000000000000000 ) ) ;
#110 = APPLICATION_CONTEXT ( 'automotive_design' ) ;
#111 = DIRECTION ( 'NONE',  ( -1.000000000000000000, -0.0000000000000000000, 4.180514494144377500E-015 ) ) ;
#112 =( NAMED_UNIT ( * ) SI_UNIT ( $, .STERADIAN. ) SOLID_ANGLE_UNIT ( ) );
#113 = EDGE_LOOP ( 'NONE', ( #64, #148, #62, #41 ) ) ;
#114 = APPLICATION_PROTOCOL_DEFINITION ( 'draft international standard', 'automotive_design', 1998, #192 ) ;
#115 = EDGE_CURVE ( 'NONE', #77, #8, #60, .T. ) ;
#116 = EDGE_LOOP ( 'NONE', ( #171, #195, #59, #97 ) ) ;
#117 = VECTOR ( 'NONE', #13, 1000.000000000000000 ) ;
#118 = ORIENTED_EDGE ( 'NONE', *, *, #32, .F. ) ;
#119 = ADVANCED_FACE ( 'NONE', ( #49 ), #201, .F. ) ;
#120 = PRESENTATION_LAYER_ASSIGNMENT (  '', '', ( #27 ) ) ;
#121 = PLANE ( 'NONE',  #40 ) ;
#122 = CARTESIAN_POINT ( 'NONE',  ( 4.355204334851265500, 12.00000000000000000, 4.286263797015675000E-017 ) ) ;
#123 = DIRECTION ( 'NONE',  ( -0.0000000000000000000, -1.000000000000000000, -0.0000000000000000000 ) ) ;
#124 = CARTESIAN_POINT ( 'NONE',  ( 5.055204334851263900, 12.00000000000000000, 3.000000000000000000 ) ) ;
#125 = CARTESIAN_POINT ( 'NONE',  ( 2.980431626364512500, 12.00000000000000000, 3.000000000000000000 ) ) ;
#126 = DIRECTION ( 'NONE',  ( -0.0000000000000000000, -1.000000000000000000, -0.0000000000000000000 ) ) ;
#127 = PLANE ( 'NONE',  #25 ) ;
#128 = FILL_AREA_STYLE ('',( #169 ) ) ;
#129 = ADVANCED_FACE ( 'NONE', ( #47 ), #52, .T. ) ;
#130 = ADVANCED_FACE ( 'NONE', ( #63 ), #121, .F. ) ;
#131 = ADVANCED_FACE ( 'NONE', ( #44 ), #50, .F. ) ;
#132 = PRESENTATION_STYLE_ASSIGNMENT (( #56 ) ) ;
#133 = DIRECTION ( 'NONE',  ( 0.0000000000000000000, 1.000000000000000000, 0.0000000000000000000 ) ) ;
#134 = CARTESIAN_POINT ( 'NONE',  ( 2.980431626364512500, 0.0000000000000000000, 3.000000000000000000 ) ) ;
#135 = VECTOR ( 'NONE', #109, 1000.000000000000000 ) ;
#136 = CARTESIAN_POINT ( 'NONE',  ( 4.355204334851265500, 12.00000000000000000, 4.286263797015675000E-017 ) ) ;
#137 = AXIS2_PLACEMENT_3D ( 'NONE', #136, #83, #33 ) ;
#138 = CARTESIAN_POINT ( 'NONE',  ( 5.055204334851263900, 0.0000000000000000000, 3.000000000000000000 ) ) ;
#139 = CARTESIAN_POINT ( 'NONE',  ( 2.980431626364514300, 12.00000000000000000, -3.000000000000000000 ) ) ;
#140 = STYLED_ITEM ( 'NONE', ( #198 ), #31 ) ;
#141 = SURFACE_STYLE_USAGE ( .BOTH. , #21 ) ;
#142 = VERTEX_POINT ( 'NONE', #138 ) ;
#143 = UNCERTAINTY_MEASURE_WITH_UNIT (LENGTH_MEASURE( 1.000000000000000100E-005 ), #168, 'distance_accuracy_value', 'NONE');
#144 = EDGE_LOOP ( 'NONE', ( #17, #203, #118, #173 ) ) ;
#145 = LINE ( 'NONE', #19, #149 ) ;
#146 = AXIS2_PLACEMENT_3D ( 'NONE', #72, #74, #181 ) ;
#147 = CARTESIAN_POINT ( 'NONE',  ( 5.055204334851262100, 12.00000000000000000, -3.000000000000008900 ) ) ;
#148 = ORIENTED_EDGE ( 'NONE', *, *, #65, .F. ) ;
#149 = VECTOR ( 'NONE', #111, 1000.000000000000000 ) ;
#150 =( GEOMETRIC_REPRESENTATION_CONTEXT ( 3 ) GLOBAL_UNCERTAINTY_ASSIGNED_CONTEXT ( ( #197 ) ) GLOBAL_UNIT_ASSIGNED_CONTEXT ( ( #39, #158, #58 ) ) REPRESENTATION_CONTEXT ( 'NONE', 'WORKASPACE' ) );
#151 = DIRECTION ( 'NONE',  ( 0.0000000000000000000, 0.0000000000000000000, 1.000000000000000000 ) ) ;
#152 = VECTOR ( 'NONE', #20, 1000.000000000000000 ) ;
#153 = CARTESIAN_POINT ( 'NONE',  ( 5.055204334851262100, 0.0000000000000000000, -3.000000000000008900 ) ) ;
#154 = SURFACE_SIDE_STYLE ('',( #76 ) ) ;
#155 = DIRECTION ( 'NONE',  ( 4.180514494144377500E-015, -0.0000000000000000000, 1.000000000000000000 ) ) ;
#156 = EDGE_CURVE ( 'NONE', #142, #10, #43, .T. ) ;
#157 = VERTEX_POINT ( 'NONE', #70 ) ;
#158 =( NAMED_UNIT ( * ) PLANE_ANGLE_UNIT ( ) SI_UNIT ( $, .RADIAN. ) );
#159 = AXIS2_PLACEMENT_3D ( 'NONE', #167, #54, #151 ) ;
#160 = ORIENTED_EDGE ( 'NONE', *, *, #170, .T. ) ;
#161 = SHAPE_DEFINITION_REPRESENTATION ( #73, #31 ) ;
#162 = DIRECTION ( 'NONE',  ( 0.0000000000000000000, -0.0000000000000000000, 1.000000000000000000 ) ) ;
#163 = DIRECTION ( 'NONE',  ( 0.0000000000000000000, 1.000000000000000000, 0.0000000000000000000 ) ) ;
#164 = CARTESIAN_POINT ( 'NONE',  ( 2.980431626364512500, 12.00000000000000000, 3.000000000000000000 ) ) ;
#165 = ORIENTED_EDGE ( 'NONE', *, *, #75, .T. ) ;
#166 = FACE_OUTER_BOUND ( 'NONE', #196, .T. ) ;
#167 = CARTESIAN_POINT ( 'NONE',  ( 4.355204334851265500, 0.0000000000000000000, 4.286263797015675000E-017 ) ) ;
#168 =( LENGTH_UNIT ( ) NAMED_UNIT ( * ) SI_UNIT ( .MILLI., .METRE. ) );
#169 = FILL_AREA_STYLE_COLOUR ( '', #174 ) ;
#170 = EDGE_CURVE ( 'NONE', #69, #142, #28, .T. ) ;
#171 = ORIENTED_EDGE ( 'NONE', *, *, #30, .F. ) ;
#172 = AXIS2_PLACEMENT_3D ( 'NONE', #122, #133, #162 ) ;
#173 = ORIENTED_EDGE ( 'NONE', *, *, #65, .T. ) ;
#174 = COLOUR_RGB ( '',1.000000000000000000, 1.000000000000000000, 1.000000000000000000 ) ;
#175 =( GEOMETRIC_REPRESENTATION_CONTEXT ( 3 ) GLOBAL_UNCERTAINTY_ASSIGNED_CONTEXT ( ( #100 ) ) GLOBAL_UNIT_ASSIGNED_CONTEXT ( ( #38, #191, #112 ) ) REPRESENTATION_CONTEXT ( 'NONE', 'WORKASPACE' ) );
#176 = DIRECTION ( 'NONE',  ( 0.0000000000000000000, 1.000000000000000000, 0.0000000000000000000 ) ) ;
#177 = ORIENTED_EDGE ( 'NONE', *, *, #189, .T. ) ;
#178 = PRODUCT_RELATED_PRODUCT_CATEGORY ( 'part', '', ( #92 ) ) ;
#179 = SURFACE_STYLE_FILL_AREA ( #128 ) ;
#180 =( NAMED_UNIT ( * ) SI_UNIT ( $, .STERADIAN. ) SOLID_ANGLE_UNIT ( ) );
#181 = DIRECTION ( 'NONE',  ( 1.000000000000000000, 0.0000000000000000000, 0.0000000000000000000 ) ) ;
#182 = ORIENTED_EDGE ( 'NONE', *, *, #188, .T. ) ;
#183 = MANIFOLD_SOLID_BREP ( 'Í¹Ì¨-À­Éì1', #67 ) ;
#184 = PRODUCT_DEFINITION ( 'Î´Öª', '', #46, #3 ) ;
#185 = DIRECTION ( 'NONE',  ( -1.000000000000000000, 0.0000000000000000000, 2.891205793294674400E-016 ) ) ;
#186 = EDGE_LOOP ( 'NONE', ( #104, #26, #80, #160 ) ) ;
#187 = DIRECTION ( 'NONE',  ( 1.000000000000000000, 0.0000000000000000000, 0.0000000000000000000 ) ) ;
#188 = EDGE_CURVE ( 'NONE', #61, #77, #145, .T. ) ;
#189 = EDGE_CURVE ( 'NONE', #10, #157, #7, .T. ) ;
#190 = LINE ( 'NONE', #103, #14 ) ;
#191 =( NAMED_UNIT ( * ) PLANE_ANGLE_UNIT ( ) SI_UNIT ( $, .RADIAN. ) );
#192 = APPLICATION_CONTEXT ( 'automotive_design' ) ;
#193 = ADVANCED_FACE ( 'NONE', ( #166 ), #127, .F. ) ;
#194 = MECHANICAL_DESIGN_GEOMETRIC_PRESENTATION_REPRESENTATION (  '', ( #140 ), #150 ) ;
#195 = ORIENTED_EDGE ( 'NONE', *, *, #189, .F. ) ;
#196 = EDGE_LOOP ( 'NONE', ( #177, #24, #23, #165 ) ) ;
#197 = UNCERTAINTY_MEASURE_WITH_UNIT (LENGTH_MEASURE( 1.000000000000000100E-005 ), #39, 'distance_accuracy_value', 'NONE');
#198 = PRESENTATION_STYLE_ASSIGNMENT (( #141 ) ) ;
#199 = CARTESIAN_POINT ( 'NONE',  ( 2.980431626364512500, 12.00000000000000000, 3.000000000000000000 ) ) ;
#200 = AXIS2_PLACEMENT_3D ( 'NONE', #102, #176, #82 ) ;
#201 = PLANE ( 'NONE',  #200 ) ;
#202 = CARTESIAN_POINT ( 'NONE',  ( 2.980431626364514300, 12.00000000000000000, -3.000000000000000000 ) ) ;
#203 = ORIENTED_EDGE ( 'NONE', *, *, #170, .F. ) ;
#204 =( GEOMETRIC_REPRESENTATION_CONTEXT ( 3 ) GLOBAL_UNCERTAINTY_ASSIGNED_CONTEXT ( ( #143 ) ) GLOBAL_UNIT_ASSIGNED_CONTEXT ( ( #168, #71, #180 ) ) REPRESENTATION_CONTEXT ( 'NONE', 'WORKASPACE' ) );
ENDSEC;
END-ISO-10303-21;
