ISO-10303-21;
HEADER;
FILE_DESCRIPTION (( 'STEP AP214' ),
    '1' );
FILE_NAME ('GLM5-025B-200-IR1.STEP',
    '2024-08-09T03:23:45',
    ( 'Windows User' ),
    ( 'P R C' ),
    'SwSTEP 2.0',
    'SolidWorks 2022',
    '' );
FILE_SCHEMA (( 'AUTOMOTIVE_DESIGN' ));
ENDSEC;

DATA;
#1 = AXIS2_PLACEMENT_3D ( 'NONE', #170, #20, #235 ) ;
#2 = EDGE_CURVE ( 'NONE', #268, #82, #203, .T. ) ;
#3 = CIRCLE ( 'NONE', #241, 12.52884655435420136 ) ;
#4 = ORIENTED_EDGE ( 'NONE', *, *, #229, .F. ) ;
#5 = CARTESIAN_POINT ( 'NONE',  ( 12.69999999999999751, 1.555301434917138235E-15, 10.00000000000000000 ) ) ;
#6 = ORIENTED_EDGE ( 'NONE', *, *, #27, .F. ) ;
#7 = VERTEX_POINT ( 'NONE', #181 ) ;
#8 = DIRECTION ( 'NONE',  ( 0.000000000000000000, 0.000000000000000000, -1.000000000000000000 ) ) ;
#9 = VERTEX_POINT ( 'NONE', #157 ) ;
#10 = EDGE_LOOP ( 'NONE', ( #179, #199, #115, #129 ) ) ;
#11 = APPLICATION_CONTEXT ( 'automotive_design' ) ;
#12 = ORIENTED_EDGE ( 'NONE', *, *, #217, .F. ) ;
#13 = CARTESIAN_POINT ( 'NONE',  ( 0.000000000000000000, 0.000000000000000000, 10.00000000000000000 ) ) ;
#14 = CIRCLE ( 'NONE', #46, 12.69999999999999751 ) ;
#15 = DIRECTION ( 'NONE',  ( -1.000000000000000000, 0.000000000000000000, 0.000000000000000000 ) ) ;
#16 = STYLED_ITEM ( 'NONE', ( #239 ), #195 ) ;
#17 = DIRECTION ( 'NONE',  ( -1.000000000000000000, 1.224646799147353207E-16, 0.000000000000000000 ) ) ;
#18 = SURFACE_STYLE_USAGE ( .BOTH. , #188 ) ;
#19 = VECTOR ( 'NONE', #141, 1000.000000000000114 ) ;
#20 = DIRECTION ( 'NONE',  ( -0.000000000000000000, -0.000000000000000000, -1.000000000000000000 ) ) ;
#21 =( NAMED_UNIT ( * ) PLANE_ANGLE_UNIT ( ) SI_UNIT ( $, .RADIAN. ) );
#22 = CARTESIAN_POINT ( 'NONE',  ( -12.69999999999999929, 0.000000000000000000, 20.00000000000000000 ) ) ;
#23 = EDGE_CURVE ( 'NONE', #202, #34, #191, .T. ) ;
#24 = PRODUCT ( 'GLM5-025B-200-IR1', 'GLM5-025B-200-IR1', '', ( #172 ) ) ;
#25 = AXIS2_PLACEMENT_3D ( 'NONE', #224, #32, #116 ) ;
#26 = AXIS2_PLACEMENT_3D ( 'NONE', #29, #89, #161 ) ;
#27 = EDGE_CURVE ( 'NONE', #92, #28, #33, .T. ) ;
#28 = VERTEX_POINT ( 'NONE', #75 ) ;
#29 = CARTESIAN_POINT ( 'NONE',  ( 0.000000000000000000, 0.000000000000000000, 12.97115344564578265 ) ) ;
#30 = DIRECTION ( 'NONE',  ( -0.000000000000000000, -0.000000000000000000, 1.000000000000000000 ) ) ;
#31 = DIRECTION ( 'NONE',  ( 0.000000000000000000, 0.000000000000000000, -1.000000000000000000 ) ) ;
#32 = DIRECTION ( 'NONE',  ( -0.000000000000000000, -0.000000000000000000, 1.000000000000000000 ) ) ;
#33 = CIRCLE ( 'NONE', #281, 39.99999999999999289 ) ;
#34 = VERTEX_POINT ( 'NONE', #259 ) ;
#35 = LINE ( 'NONE', #79, #19 ) ;
#36 = DIRECTION ( 'NONE',  ( -1.224646799147353454E-16, -1.000000000000000000, 0.000000000000000000 ) ) ;
#37 = DIRECTION ( 'NONE',  ( 1.000000000000000000, 0.000000000000000000, 0.000000000000000000 ) ) ;
#38 = CARTESIAN_POINT ( 'NONE',  ( 0.000000000000000000, 0.000000000000000000, 87.82994053184862082 ) ) ;
#39 = CARTESIAN_POINT ( 'NONE',  ( 0.000000000000000000, 0.000000000000000000, 87.82994053184862082 ) ) ;
#40 = COLOUR_RGB ( '',1.000000000000000000, 1.000000000000000000, 1.000000000000000000 ) ;
#41 =( LENGTH_UNIT ( ) NAMED_UNIT ( * ) SI_UNIT ( .MILLI., .METRE. ) );
#42 = SURFACE_STYLE_USAGE ( .BOTH. , #121 ) ;
#43 = ADVANCED_FACE ( 'NONE', ( #189 ), #145, .T. ) ;
#44 = AXIS2_PLACEMENT_3D ( 'NONE', #86, #180, #65 ) ;
#45 = ORIENTED_EDGE ( 'NONE', *, *, #2, .F. ) ;
#46 = AXIS2_PLACEMENT_3D ( 'NONE', #248, #112, #134 ) ;
#47 = PRODUCT_RELATED_PRODUCT_CATEGORY ( 'part', '', ( #24 ) ) ;
#48 = CARTESIAN_POINT ( 'NONE',  ( 12.69999999999999929, 1.555301434917138433E-15, 20.00000000000000000 ) ) ;
#49 = PRESENTATION_LAYER_ASSIGNMENT (  '', '', ( #266 ) ) ;
#50 = ORIENTED_EDGE ( 'NONE', *, *, #27, .T. ) ;
#51 = CARTESIAN_POINT ( 'NONE',  ( 0.000000000000000000, 0.000000000000000000, 47.93033087121703772 ) ) ;
#52 = ORIENTED_EDGE ( 'NONE', *, *, #71, .T. ) ;
#53 = AXIS2_PLACEMENT_3D ( 'NONE', #62, #151, #200 ) ;
#54 = EDGE_CURVE ( 'NONE', #7, #67, #177, .T. ) ;
#55 = SPHERICAL_SURFACE ( 'NONE', #107, 75.90000000000000568 ) ;
#56 = DIRECTION ( 'NONE',  ( 0.000000000000000000, 1.000000000000000000, 0.000000000000000000 ) ) ;
#57 =( NAMED_UNIT ( * ) SI_UNIT ( $, .STERADIAN. ) SOLID_ANGLE_UNIT ( ) );
#58 = VECTOR ( 'NONE', #204, 1000.000000000000000 ) ;
#59 = EDGE_CURVE ( 'NONE', #34, #7, #3, .T. ) ;
#60 = CARTESIAN_POINT ( 'NONE',  ( 0.000000000000000000, 0.000000000000000000, 87.82994053184862082 ) ) ;
#61 = EDGE_LOOP ( 'NONE', ( #223, #52, #135, #91 ) ) ;
#62 = CARTESIAN_POINT ( 'NONE',  ( 0.000000000000000000, 0.000000000000000000, 87.82994053184862082 ) ) ;
#63 = ADVANCED_FACE ( 'NONE', ( #232 ), #280, .F. ) ;
#64 = ORIENTED_EDGE ( 'NONE', *, *, #83, .F. ) ;
#65 = DIRECTION ( 'NONE',  ( 1.000000000000000000, 0.000000000000000000, 0.000000000000000000 ) ) ;
#66 = CARTESIAN_POINT ( 'NONE',  ( 12.69999999999999929, 1.555301434917138433E-15, 12.79999999999999183 ) ) ;
#67 = VERTEX_POINT ( 'NONE', #271 ) ;
#68 = ORIENTED_EDGE ( 'NONE', *, *, #242, .F. ) ;
#69 = FILL_AREA_STYLE ('',( #163 ) ) ;
#70 = CIRCLE ( 'NONE', #159, 12.69999999999999751 ) ;
#71 = EDGE_CURVE ( 'NONE', #9, #34, #139, .T. ) ;
#72 = ORIENTED_EDGE ( 'NONE', *, *, #105, .T. ) ;
#73 = CYLINDRICAL_SURFACE ( 'NONE', #207, 12.69999999999999929 ) ;
#74 = SPHERICAL_SURFACE ( 'NONE', #81, 39.99999999999999289 ) ;
#75 = CARTESIAN_POINT ( 'NONE',  ( -1.555301434917137447E-15, -12.69999999999998863, 9.999999999999998224 ) ) ;
#76 = DIRECTION ( 'NONE',  ( 1.000000000000000000, 0.000000000000000000, 0.000000000000000000 ) ) ;
#77 = FILL_AREA_STYLE ('',( #169 ) ) ;
#78 = AXIS2_PLACEMENT_3D ( 'NONE', #187, #257, #37 ) ;
#79 = CARTESIAN_POINT ( 'NONE',  ( 12.52884655435420136, 1.534341182979821869E-15, 12.97115344564578265 ) ) ;
#80 = DIRECTION ( 'NONE',  ( -0.000000000000000000, -0.000000000000000000, 1.000000000000000000 ) ) ;
#81 = AXIS2_PLACEMENT_3D ( 'NONE', #118, #15, #98 ) ;
#82 = VERTEX_POINT ( 'NONE', #154 ) ;
#83 = EDGE_CURVE ( 'NONE', #152, #87, #127, .T. ) ;
#84 = CIRCLE ( 'NONE', #44, 12.69999999999999929 ) ;
#85 = ORIENTED_EDGE ( 'NONE', *, *, #125, .T. ) ;
#86 = CARTESIAN_POINT ( 'NONE',  ( 0.000000000000000000, 0.000000000000000000, 12.79999999999999183 ) ) ;
#87 = VERTEX_POINT ( 'NONE', #66 ) ;
#88 = VERTEX_POINT ( 'NONE', #5 ) ;
#89 = DIRECTION ( 'NONE',  ( 0.000000000000000000, 0.000000000000000000, -1.000000000000000000 ) ) ;
#90 = DIRECTION ( 'NONE',  ( 1.000000000000000000, 0.000000000000000000, 0.000000000000000000 ) ) ;
#91 = ORIENTED_EDGE ( 'NONE', *, *, #54, .T. ) ;
#92 = VERTEX_POINT ( 'NONE', #109 ) ;
#93 = ORIENTED_EDGE ( 'NONE', *, *, #54, .F. ) ;
#94 =( NAMED_UNIT ( * ) PLANE_ANGLE_UNIT ( ) SI_UNIT ( $, .RADIAN. ) );
#95 = AXIS2_PLACEMENT_3D ( 'NONE', #60, #277, #36 ) ;
#96 = UNCERTAINTY_MEASURE_WITH_UNIT (LENGTH_MEASURE( 1.000000000000000082E-05 ), #192, 'distance_accuracy_value', 'NONE');
#97 =( GEOMETRIC_REPRESENTATION_CONTEXT ( 3 ) GLOBAL_UNCERTAINTY_ASSIGNED_CONTEXT ( ( #96 ) ) GLOBAL_UNIT_ASSIGNED_CONTEXT ( ( #192, #164, #57 ) ) REPRESENTATION_CONTEXT ( 'NONE', 'WORKASPACE' ) );
#98 = DIRECTION ( 'NONE',  ( 0.000000000000000000, 1.000000000000000000, 0.000000000000000000 ) ) ;
#99 = EDGE_CURVE ( 'NONE', #87, #152, #84, .T. ) ;
#100 =( LENGTH_UNIT ( ) NAMED_UNIT ( * ) SI_UNIT ( .MILLI., .METRE. ) );
#101 = CARTESIAN_POINT ( 'NONE',  ( 0.000000000000000000, 0.000000000000000000, 47.93033087121703772 ) ) ;
#102 = DIRECTION ( 'NONE',  ( -1.224646799147353207E-16, -1.000000000000000000, 0.000000000000000000 ) ) ;
#103 = VECTOR ( 'NONE', #261, 1000.000000000000114 ) ;
#104 = AXIS2_PLACEMENT_3D ( 'NONE', #39, #165, #110 ) ;
#105 = EDGE_CURVE ( 'NONE', #87, #88, #246, .T. ) ;
#106 = CARTESIAN_POINT ( 'NONE',  ( 0.000000000000000000, 0.000000000000000000, 12.97115344564578265 ) ) ;
#107 = AXIS2_PLACEMENT_3D ( 'NONE', #38, #122, #236 ) ;
#108 = ADVANCED_FACE ( 'NONE', ( #218 ), #263, .T. ) ;
#109 = CARTESIAN_POINT ( 'NONE',  ( 0.000000000000000000, 2.449293598294706119E-15, 7.930330871217042166 ) ) ;
#110 = DIRECTION ( 'NONE',  ( 0.000000000000000000, 1.000000000000000000, 0.000000000000000000 ) ) ;
#111 = EDGE_LOOP ( 'NONE', ( #12, #50, #272, #45 ) ) ;
#112 = DIRECTION ( 'NONE',  ( -0.000000000000000000, -0.000000000000000000, 1.000000000000000000 ) ) ;
#113 = ORIENTED_EDGE ( 'NONE', *, *, #99, .F. ) ;
#114 = AXIS2_PLACEMENT_3D ( 'NONE', #155, #247, #90 ) ;
#115 = ORIENTED_EDGE ( 'NONE', *, *, #197, .T. ) ;
#116 = DIRECTION ( 'NONE',  ( 1.000000000000000000, 0.000000000000000000, 0.000000000000000000 ) ) ;
#117 = ORIENTED_EDGE ( 'NONE', *, *, #193, .F. ) ;
#118 = CARTESIAN_POINT ( 'NONE',  ( 0.000000000000000000, 0.000000000000000000, 47.93033087121703772 ) ) ;
#119 = ADVANCED_FACE ( 'NONE', ( #156 ), #184, .T. ) ;
#120 =( GEOMETRIC_REPRESENTATION_CONTEXT ( 3 ) GLOBAL_UNCERTAINTY_ASSIGNED_CONTEXT ( ( #128 ) ) GLOBAL_UNIT_ASSIGNED_CONTEXT ( ( #41, #21, #231 ) ) REPRESENTATION_CONTEXT ( 'NONE', 'WORKASPACE' ) );
#121 = SURFACE_SIDE_STYLE ('',( #265 ) ) ;
#122 = DIRECTION ( 'NONE',  ( -1.000000000000000000, 0.000000000000000000, 0.000000000000000000 ) ) ;
#123 = DIRECTION ( 'NONE',  ( 1.000000000000000000, 0.000000000000000000, 0.000000000000000000 ) ) ;
#124 = APPLICATION_CONTEXT ( 'automotive_design' ) ;
#125 = EDGE_CURVE ( 'NONE', #82, #28, #14, .T. ) ;
#126 = CARTESIAN_POINT ( 'NONE',  ( 0.000000000000000000, 0.000000000000000000, 0.000000000000000000 ) ) ;
#127 = CIRCLE ( 'NONE', #213, 12.69999999999999929 ) ;
#128 = UNCERTAINTY_MEASURE_WITH_UNIT (LENGTH_MEASURE( 1.000000000000000082E-05 ), #41, 'distance_accuracy_value', 'NONE');
#129 = ORIENTED_EDGE ( 'NONE', *, *, #23, .T. ) ;
#130 = PRODUCT_DEFINITION_FORMATION_WITH_SPECIFIED_SOURCE ( 'ÈÎºÎ', '', #24, .NOT_KNOWN. ) ;
#131 = CARTESIAN_POINT ( 'NONE',  ( 0.000000000000000000, 0.000000000000000000, 12.79999999999999183 ) ) ;
#132 = DIRECTION ( 'NONE',  ( -0.000000000000000000, -0.000000000000000000, -1.000000000000000000 ) ) ;
#133 = ORIENTED_EDGE ( 'NONE', *, *, #83, .T. ) ;
#134 = DIRECTION ( 'NONE',  ( 1.000000000000000000, 0.000000000000000000, 0.000000000000000000 ) ) ;
#135 = ORIENTED_EDGE ( 'NONE', *, *, #59, .T. ) ;
#136 = CARTESIAN_POINT ( 'NONE',  ( 0.000000000000000000, 0.000000000000000000, 12.97115344564578265 ) ) ;
#137 = ORIENTED_EDGE ( 'NONE', *, *, #242, .T. ) ;
#138 = LINE ( 'NONE', #171, #103 ) ;
#139 = CIRCLE ( 'NONE', #53, 75.90000000000000568 ) ;
#140 = ORIENTED_EDGE ( 'NONE', *, *, #2, .T. ) ;
#141 = DIRECTION ( 'NONE',  ( 0.7071067811865617836, 8.659560562355110352E-17, -0.7071067811865331398 ) ) ;
#142 = CARTESIAN_POINT ( 'NONE',  ( 0.000000000000000000, 0.000000000000000000, 12.97115344564578265 ) ) ;
#143 = COLOUR_RGB ( '',1.000000000000000000, 1.000000000000000000, 1.000000000000000000 ) ;
#144 = DIRECTION ( 'NONE',  ( -1.000000000000000000, 0.000000000000000000, 0.000000000000000000 ) ) ;
#145 = SPHERICAL_SURFACE ( 'NONE', #148, 39.99999999999999289 ) ;
#146 = CIRCLE ( 'NONE', #238, 39.99999999999999289 ) ;
#147 = ADVANCED_FACE ( 'NONE', ( #201 ), #258, .T. ) ;
#148 = AXIS2_PLACEMENT_3D ( 'NONE', #167, #144, #56 ) ;
#149 = ADVANCED_FACE ( 'NONE', ( #260 ), #55, .F. ) ;
#150 = ORIENTED_EDGE ( 'NONE', *, *, #99, .T. ) ;
#151 = DIRECTION ( 'NONE',  ( 1.000000000000000000, 0.000000000000000000, 0.000000000000000000 ) ) ;
#152 = VERTEX_POINT ( 'NONE', #186 ) ;
#153 = AXIS2_PLACEMENT_3D ( 'NONE', #126, #166, #123 ) ;
#154 = CARTESIAN_POINT ( 'NONE',  ( -12.69999999999999751, 0.000000000000000000, 10.00000000000000000 ) ) ;
#155 = CARTESIAN_POINT ( 'NONE',  ( 0.000000000000000000, 0.000000000000000000, 10.00000000000000000 ) ) ;
#156 = FACE_OUTER_BOUND ( 'NONE', #243, .T. ) ;
#157 = CARTESIAN_POINT ( 'NONE',  ( 0.000000000000000000, 4.647534602764206446E-15, 11.92994053184860626 ) ) ;
#158 = ORIENTED_EDGE ( 'NONE', *, *, #193, .T. ) ;
#159 = AXIS2_PLACEMENT_3D ( 'NONE', #13, #80, #240 ) ;
#160 = ORIENTED_EDGE ( 'NONE', *, *, #205, .F. ) ;
#161 = DIRECTION ( 'NONE',  ( -1.000000000000000000, 0.000000000000000000, 0.000000000000000000 ) ) ;
#162 = DIRECTION ( 'NONE',  ( -0.000000000000000000, -0.000000000000000000, -1.000000000000000000 ) ) ;
#163 = FILL_AREA_STYLE_COLOUR ( '', #40 ) ;
#164 =( NAMED_UNIT ( * ) PLANE_ANGLE_UNIT ( ) SI_UNIT ( $, .RADIAN. ) );
#165 = DIRECTION ( 'NONE',  ( -1.000000000000000000, 0.000000000000000000, 0.000000000000000000 ) ) ;
#166 = DIRECTION ( 'NONE',  ( 0.000000000000000000, 0.000000000000000000, 1.000000000000000000 ) ) ;
#167 = CARTESIAN_POINT ( 'NONE',  ( 0.000000000000000000, 0.000000000000000000, 47.93033087121703772 ) ) ;
#168 = APPLICATION_PROTOCOL_DEFINITION ( 'draft international standard', 'automotive_design', 1998, #11 ) ;
#169 = FILL_AREA_STYLE_COLOUR ( '', #143 ) ;
#170 = CARTESIAN_POINT ( 'NONE',  ( 0.000000000000000000, 0.000000000000000000, 20.00000000000000000 ) ) ;
#171 = CARTESIAN_POINT ( 'NONE',  ( -12.52884655435420136, 0.000000000000000000, 12.97115344564578265 ) ) ;
#172 = PRODUCT_CONTEXT ( 'NONE', #124, 'mechanical' ) ;
#173 = AXIS2_PLACEMENT_3D ( 'NONE', #136, #31, #220 ) ;
#174 = CARTESIAN_POINT ( 'NONE',  ( 12.52884655435420136, 1.544821308948480249E-15, 12.97115344564578265 ) ) ;
#175 = EDGE_CURVE ( 'NONE', #152, #82, #227, .T. ) ;
#176 = EDGE_LOOP ( 'NONE', ( #133, #72, #137, #140, #250 ) ) ;
#177 = CIRCLE ( 'NONE', #78, 12.52884655435420136 ) ;
#178 = PRODUCT_DEFINITION ( 'Î´Öª', '', #130, #234 ) ;
#179 = ORIENTED_EDGE ( 'NONE', *, *, #71, .F. ) ;
#180 = DIRECTION ( 'NONE',  ( 0.000000000000000000, 0.000000000000000000, -1.000000000000000000 ) ) ;
#181 = CARTESIAN_POINT ( 'NONE',  ( -12.52884655435420136, 0.000000000000000000, 12.97115344564578265 ) ) ;
#182 = ORIENTED_EDGE ( 'NONE', *, *, #105, .F. ) ;
#183 = CIRCLE ( 'NONE', #95, 75.90000000000000568 ) ;
#184 = CONICAL_SURFACE ( 'NONE', #173, 12.52884655435420136, 0.7853981633974685961 ) ;
#185 = DIRECTION ( 'NONE',  ( 1.000000000000000000, 0.000000000000000000, 0.000000000000000000 ) ) ;
#186 = CARTESIAN_POINT ( 'NONE',  ( -12.69999999999999929, 0.000000000000000000, 12.79999999999999183 ) ) ;
#187 = CARTESIAN_POINT ( 'NONE',  ( 0.000000000000000000, 0.000000000000000000, 12.97115344564578265 ) ) ;
#188 = SURFACE_SIDE_STYLE ('',( #237 ) ) ;
#189 = FACE_OUTER_BOUND ( 'NONE', #111, .T. ) ;
#190 = DIRECTION ( 'NONE',  ( -0.000000000000000000, -0.000000000000000000, 1.000000000000000000 ) ) ;
#191 = CIRCLE ( 'NONE', #267, 12.52884655435420136 ) ;
#192 =( LENGTH_UNIT ( ) NAMED_UNIT ( * ) SI_UNIT ( .MILLI., .METRE. ) );
#193 = EDGE_CURVE ( 'NONE', #28, #88, #70, .T. ) ;
#194 = MANIFOLD_SOLID_BREP ( 'µ¹½Ç1', #225 ) ;
#195 = ADVANCED_BREP_SHAPE_REPRESENTATION ( 'GLM5-025B-200-IR1', ( #194, #153 ), #97 ) ;
#196 = VECTOR ( 'NONE', #132, 1000.000000000000000 ) ;
#197 = EDGE_CURVE ( 'NONE', #67, #202, #251, .T. ) ;
#198 = DIRECTION ( 'NONE',  ( 1.000000000000000000, 0.000000000000000000, 0.000000000000000000 ) ) ;
#199 = ORIENTED_EDGE ( 'NONE', *, *, #255, .T. ) ;
#200 = DIRECTION ( 'NONE',  ( 0.000000000000000000, 0.000000000000000000, -1.000000000000000000 ) ) ;
#201 = FACE_OUTER_BOUND ( 'NONE', #176, .T. ) ;
#202 = VERTEX_POINT ( 'NONE', #174 ) ;
#203 = CIRCLE ( 'NONE', #114, 12.69999999999999751 ) ;
#204 = DIRECTION ( 'NONE',  ( -0.000000000000000000, -0.000000000000000000, -1.000000000000000000 ) ) ;
#205 = EDGE_CURVE ( 'NONE', #202, #87, #35, .T. ) ;
#206 = ORIENTED_EDGE ( 'NONE', *, *, #175, .T. ) ;
#207 = AXIS2_PLACEMENT_3D ( 'NONE', #212, #162, #254 ) ;
#208 = CARTESIAN_POINT ( 'NONE',  ( 0.000000000000000000, 12.69999999999998863, 9.999999999999998224 ) ) ;
#209 = FACE_OUTER_BOUND ( 'NONE', #222, .T. ) ;
#210 = CIRCLE ( 'NONE', #25, 12.69999999999999751 ) ;
#211 = APPLICATION_PROTOCOL_DEFINITION ( 'draft international standard', 'automotive_design', 1998, #124 ) ;
#212 = CARTESIAN_POINT ( 'NONE',  ( 0.000000000000000000, 0.000000000000000000, 20.00000000000000000 ) ) ;
#213 = AXIS2_PLACEMENT_3D ( 'NONE', #131, #8, #198 ) ;
#214 = UNCERTAINTY_MEASURE_WITH_UNIT (LENGTH_MEASURE( 1.000000000000000082E-05 ), #100, 'distance_accuracy_value', 'NONE');
#215 =( GEOMETRIC_REPRESENTATION_CONTEXT ( 3 ) GLOBAL_UNCERTAINTY_ASSIGNED_CONTEXT ( ( #214 ) ) GLOBAL_UNIT_ASSIGNED_CONTEXT ( ( #100, #94, #256 ) ) REPRESENTATION_CONTEXT ( 'NONE', 'WORKASPACE' ) );
#216 = ORIENTED_EDGE ( 'NONE', *, *, #217, .T. ) ;
#217 = EDGE_CURVE ( 'NONE', #92, #268, #146, .T. ) ;
#218 = FACE_OUTER_BOUND ( 'NONE', #274, .T. ) ;
#219 = ORIENTED_EDGE ( 'NONE', *, *, #205, .T. ) ;
#220 = DIRECTION ( 'NONE',  ( -1.000000000000000000, 0.000000000000000000, 0.000000000000000000 ) ) ;
#221 = ORIENTED_EDGE ( 'NONE', *, *, #229, .T. ) ;
#222 = EDGE_LOOP ( 'NONE', ( #182, #150, #206, #85, #158 ) ) ;
#223 = ORIENTED_EDGE ( 'NONE', *, *, #255, .F. ) ;
#224 = CARTESIAN_POINT ( 'NONE',  ( 0.000000000000000000, 0.000000000000000000, 10.00000000000000000 ) ) ;
#225 = CLOSED_SHELL ( 'NONE', ( #108, #63, #43, #147, #269, #278, #149, #119 ) ) ;
#226 = EDGE_LOOP ( 'NONE', ( #6, #216, #68, #117 ) ) ;
#227 = LINE ( 'NONE', #22, #58 ) ;
#228 = DIRECTION ( 'NONE',  ( 0.000000000000000000, 0.000000000000000000, -1.000000000000000000 ) ) ;
#229 = EDGE_CURVE ( 'NONE', #7, #152, #138, .T. ) ;
#230 = DIRECTION ( 'NONE',  ( -0.000000000000000000, -0.000000000000000000, 1.000000000000000000 ) ) ;
#231 =( NAMED_UNIT ( * ) SI_UNIT ( $, .STERADIAN. ) SOLID_ANGLE_UNIT ( ) );
#232 = FACE_OUTER_BOUND ( 'NONE', #10, .T. ) ;
#233 = SHAPE_DEFINITION_REPRESENTATION ( #264, #195 ) ;
#234 = PRODUCT_DEFINITION_CONTEXT ( 'detailed design', #11, 'design' ) ;
#235 = DIRECTION ( 'NONE',  ( -1.000000000000000000, 0.000000000000000000, 0.000000000000000000 ) ) ;
#236 = DIRECTION ( 'NONE',  ( 0.000000000000000000, 1.000000000000000000, 0.000000000000000000 ) ) ;
#237 = SURFACE_STYLE_FILL_AREA ( #77 ) ;
#238 = AXIS2_PLACEMENT_3D ( 'NONE', #51, #282, #228 ) ;
#239 = PRESENTATION_STYLE_ASSIGNMENT (( #18 ) ) ;
#240 = DIRECTION ( 'NONE',  ( 1.000000000000000000, 0.000000000000000000, 0.000000000000000000 ) ) ;
#241 = AXIS2_PLACEMENT_3D ( 'NONE', #142, #230, #76 ) ;
#242 = EDGE_CURVE ( 'NONE', #88, #268, #210, .T. ) ;
#243 = EDGE_LOOP ( 'NONE', ( #160, #244, #93, #221, #113 ) ) ;
#244 = ORIENTED_EDGE ( 'NONE', *, *, #197, .F. ) ;
#245 = PRESENTATION_LAYER_ASSIGNMENT (  '', '', ( #16 ) ) ;
#246 = LINE ( 'NONE', #48, #196 ) ;
#247 = DIRECTION ( 'NONE',  ( -0.000000000000000000, -0.000000000000000000, 1.000000000000000000 ) ) ;
#248 = CARTESIAN_POINT ( 'NONE',  ( 0.000000000000000000, 0.000000000000000000, 10.00000000000000000 ) ) ;
#249 = CARTESIAN_POINT ( 'NONE',  ( 0.000000000000000000, 0.000000000000000000, 12.97115344564578265 ) ) ;
#250 = ORIENTED_EDGE ( 'NONE', *, *, #175, .F. ) ;
#251 = CIRCLE ( 'NONE', #262, 12.52884655435420136 ) ;
#252 = PRESENTATION_STYLE_ASSIGNMENT (( #42 ) ) ;
#253 = ORIENTED_EDGE ( 'NONE', *, *, #23, .F. ) ;
#254 = DIRECTION ( 'NONE',  ( -1.000000000000000000, 0.000000000000000000, 0.000000000000000000 ) ) ;
#255 = EDGE_CURVE ( 'NONE', #9, #67, #183, .T. ) ;
#256 =( NAMED_UNIT ( * ) SI_UNIT ( $, .STERADIAN. ) SOLID_ANGLE_UNIT ( ) );
#257 = DIRECTION ( 'NONE',  ( -0.000000000000000000, -0.000000000000000000, 1.000000000000000000 ) ) ;
#258 = CYLINDRICAL_SURFACE ( 'NONE', #1, 12.69999999999999929 ) ;
#259 = CARTESIAN_POINT ( 'NONE',  ( 0.000000000000000000, 12.52884655435421557, 12.97115344564578265 ) ) ;
#260 = FACE_OUTER_BOUND ( 'NONE', #61, .T. ) ;
#261 = DIRECTION ( 'NONE',  ( -0.7071067811865617836, 0.000000000000000000, -0.7071067811865331398 ) ) ;
#262 = AXIS2_PLACEMENT_3D ( 'NONE', #106, #190, #185 ) ;
#263 = CONICAL_SURFACE ( 'NONE', #26, 12.52884655435420136, 0.7853981633974685961 ) ;
#264 = PRODUCT_DEFINITION_SHAPE ( 'NONE', 'NONE',  #178 ) ;
#265 = SURFACE_STYLE_FILL_AREA ( #69 ) ;
#266 = STYLED_ITEM ( 'NONE', ( #252 ), #194 ) ;
#267 = AXIS2_PLACEMENT_3D ( 'NONE', #249, #30, #275 ) ;
#268 = VERTEX_POINT ( 'NONE', #208 ) ;
#269 = ADVANCED_FACE ( 'NONE', ( #209 ), #73, .T. ) ;
#270 = ORIENTED_EDGE ( 'NONE', *, *, #59, .F. ) ;
#271 = CARTESIAN_POINT ( 'NONE',  ( -1.534341182979823841E-15, -12.52884655435421557, 12.97115344564578265 ) ) ;
#272 = ORIENTED_EDGE ( 'NONE', *, *, #125, .F. ) ;
#273 = MECHANICAL_DESIGN_GEOMETRIC_PRESENTATION_REPRESENTATION (  '', ( #16 ), #120 ) ;
#274 = EDGE_LOOP ( 'NONE', ( #253, #219, #64, #4, #270 ) ) ;
#275 = DIRECTION ( 'NONE',  ( 1.000000000000000000, 0.000000000000000000, 0.000000000000000000 ) ) ;
#276 = MECHANICAL_DESIGN_GEOMETRIC_PRESENTATION_REPRESENTATION (  '', ( #266 ), #215 ) ;
#277 = DIRECTION ( 'NONE',  ( -1.000000000000000000, 1.224646799147353207E-16, 0.000000000000000000 ) ) ;
#278 = ADVANCED_FACE ( 'NONE', ( #279 ), #74, .T. ) ;
#279 = FACE_OUTER_BOUND ( 'NONE', #226, .T. ) ;
#280 = SPHERICAL_SURFACE ( 'NONE', #104, 75.90000000000000568 ) ;
#281 = AXIS2_PLACEMENT_3D ( 'NONE', #101, #17, #102 ) ;
#282 = DIRECTION ( 'NONE',  ( 1.000000000000000000, -0.000000000000000000, 0.000000000000000000 ) ) ;
ENDSEC;
END-ISO-10303-21;
