ISO-10303-21;
HEADER;
FILE_DESCRIPTION (( 'STEP AP214' ),
    '1' );
FILE_NAME ('GLM5-025B-150-IR1.STEP',
    '2024-08-09T03:12:13',
    ( 'Windows User' ),
    ( 'P R C' ),
    'SwSTEP 2.0',
    'SolidWorks 2022',
    '' );
FILE_SCHEMA (( 'AUTOMOTIVE_DESIGN' ));
ENDSEC;

DATA;
#1 = DIRECTION ( 'NONE',  ( -0.000000000000000000, -0.000000000000000000, -1.000000000000000000 ) ) ;
#2 = CIRCLE ( 'NONE', #152, 12.52797042373248182 ) ;
#3 = SURFACE_STYLE_FILL_AREA ( #101 ) ;
#4 = ORIENTED_EDGE ( 'NONE', *, *, #127, .F. ) ;
#5 = CARTESIAN_POINT ( 'NONE',  ( 0.000000000000000000, 0.000000000000000000, 12.67202957626752102 ) ) ;
#6 = AXIS2_PLACEMENT_3D ( 'NONE', #48, #132, #73 ) ;
#7 =( NAMED_UNIT ( * ) SI_UNIT ( $, .STERADIAN. ) SOLID_ANGLE_UNIT ( ) );
#8 = PRODUCT_DEFINITION ( 'Î´Öª', '', #148, #11 ) ;
#9 = PRESENTATION_LAYER_ASSIGNMENT (  '', '', ( #56 ) ) ;
#10 = DIRECTION ( 'NONE',  ( -0.000000000000000000, -0.000000000000000000, 1.000000000000000000 ) ) ;
#11 = PRODUCT_DEFINITION_CONTEXT ( 'detailed design', #168, 'design' ) ;
#12 = DIRECTION ( 'NONE',  ( 1.000000000000000000, 0.000000000000000000, 0.000000000000000000 ) ) ;
#13 = ORIENTED_EDGE ( 'NONE', *, *, #51, .T. ) ;
#14 = DIRECTION ( 'NONE',  ( 0.000000000000000000, 1.000000000000000000, 0.000000000000000000 ) ) ;
#15 = CLOSED_SHELL ( 'NONE', ( #65, #108, #254, #115, #153, #59, #202, #238 ) ) ;
#16 = VECTOR ( 'NONE', #107, 1000.000000000000000 ) ;
#17 = UNCERTAINTY_MEASURE_WITH_UNIT (LENGTH_MEASURE( 1.000000000000000082E-05 ), #210, 'distance_accuracy_value', 'NONE');
#18 = DIRECTION ( 'NONE',  ( 0.000000000000000000, 0.000000000000000000, -1.000000000000000000 ) ) ;
#19 = ORIENTED_EDGE ( 'NONE', *, *, #130, .F. ) ;
#20 = CARTESIAN_POINT ( 'NONE',  ( 0.000000000000000000, 0.000000000000000000, 90.26719667488310961 ) ) ;
#21 = DIRECTION ( 'NONE',  ( 0.000000000000000000, 1.000000000000000000, 0.000000000000000000 ) ) ;
#22 = DIRECTION ( 'NONE',  ( 1.000000000000000000, 0.000000000000000000, 0.000000000000000000 ) ) ;
#23 = VECTOR ( 'NONE', #278, 1000.000000000000000 ) ;
#24 = DIRECTION ( 'NONE',  ( -1.000000000000000000, 0.000000000000000000, 0.000000000000000000 ) ) ;
#25 = DIRECTION ( 'NONE',  ( -1.224646799147353207E-16, -1.000000000000000000, 0.000000000000000000 ) ) ;
#26 = AXIS2_PLACEMENT_3D ( 'NONE', #69, #158, #252 ) ;
#27 =( NAMED_UNIT ( * ) SI_UNIT ( $, .STERADIAN. ) SOLID_ANGLE_UNIT ( ) );
#28 = EDGE_CURVE ( 'NONE', #81, #269, #147, .T. ) ;
#29 = CARTESIAN_POINT ( 'NONE',  ( 12.52797042373248004, 1.534233887923668965E-15, 12.67202957626749260 ) ) ;
#30 = CIRCLE ( 'NONE', #193, 78.59999999999998010 ) ;
#31 = MANIFOLD_SOLID_BREP ( 'µ¹½Ç1', #15 ) ;
#32 = FACE_OUTER_BOUND ( 'NONE', #209, .T. ) ;
#33 = CARTESIAN_POINT ( 'NONE',  ( 0.000000000000000000, 0.000000000000000000, 12.67202957626752102 ) ) ;
#34 = ORIENTED_EDGE ( 'NONE', *, *, #170, .T. ) ;
#35 = CARTESIAN_POINT ( 'NONE',  ( 0.000000000000000000, 12.52797042373256531, 12.67202957626752102 ) ) ;
#36 = EDGE_CURVE ( 'NONE', #77, #174, #171, .T. ) ;
#37 = DIRECTION ( 'NONE',  ( 1.000000000000000000, 0.000000000000000000, 0.000000000000000000 ) ) ;
#38 = FILL_AREA_STYLE_COLOUR ( '', #87 ) ;
#39 = DIRECTION ( 'NONE',  ( 0.000000000000000000, 0.000000000000000000, -1.000000000000000000 ) ) ;
#40 = UNCERTAINTY_MEASURE_WITH_UNIT (LENGTH_MEASURE( 1.000000000000000082E-05 ), #110, 'distance_accuracy_value', 'NONE');
#41 = ORIENTED_EDGE ( 'NONE', *, *, #84, .T. ) ;
#42 = ORIENTED_EDGE ( 'NONE', *, *, #208, .T. ) ;
#43 = CARTESIAN_POINT ( 'NONE',  ( 0.000000000000000000, 0.000000000000000000, 10.00000000000000000 ) ) ;
#44 = DIRECTION ( 'NONE',  ( 1.000000000000000000, 0.000000000000000000, 0.000000000000000000 ) ) ;
#45 = APPLICATION_PROTOCOL_DEFINITION ( 'draft international standard', 'automotive_design', 1998, #231 ) ;
#46 = PRODUCT ( 'GLM5-025B-150-IR1', 'GLM5-025B-150-IR1', '', ( #177 ) ) ;
#47 =( LENGTH_UNIT ( ) NAMED_UNIT ( * ) SI_UNIT ( .MILLI., .METRE. ) );
#48 = CARTESIAN_POINT ( 'NONE',  ( 0.000000000000000000, 0.000000000000000000, 12.67202957626749260 ) ) ;
#49 = UNCERTAINTY_MEASURE_WITH_UNIT (LENGTH_MEASURE( 1.000000000000000082E-05 ), #47, 'distance_accuracy_value', 'NONE');
#50 = CARTESIAN_POINT ( 'NONE',  ( 12.69999999999999751, 1.555301434917138235E-15, 10.00000000000000000 ) ) ;
#51 = EDGE_CURVE ( 'NONE', #77, #269, #186, .T. ) ;
#52 = AXIS2_PLACEMENT_3D ( 'NONE', #62, #18, #260 ) ;
#53 = CARTESIAN_POINT ( 'NONE',  ( -12.69999999999999929, 0.000000000000000000, 12.49999999999998401 ) ) ;
#54 = CARTESIAN_POINT ( 'NONE',  ( 0.000000000000000000, 2.143131898507868248E-15, 7.614567297451614536 ) ) ;
#55 = LINE ( 'NONE', #207, #157 ) ;
#56 = STYLED_ITEM ( 'NONE', ( #194 ), #31 ) ;
#57 = CARTESIAN_POINT ( 'NONE',  ( 0.000000000000000000, 0.000000000000000000, 42.61456729745161454 ) ) ;
#58 = SPHERICAL_SURFACE ( 'NONE', #97, 35.00000000000000000 ) ;
#59 = ADVANCED_FACE ( 'NONE', ( #226 ), #180, .T. ) ;
#60 = CIRCLE ( 'NONE', #75, 78.59999999999998010 ) ;
#61 = ORIENTED_EDGE ( 'NONE', *, *, #227, .F. ) ;
#62 = CARTESIAN_POINT ( 'NONE',  ( 0.000000000000000000, 0.000000000000000000, 12.49999999999998401 ) ) ;
#63 = AXIS2_PLACEMENT_3D ( 'NONE', #57, #78, #230 ) ;
#64 = DIRECTION ( 'NONE',  ( -0.000000000000000000, -0.000000000000000000, 1.000000000000000000 ) ) ;
#65 = ADVANCED_FACE ( 'NONE', ( #32 ), #205, .T. ) ;
#66 = CIRCLE ( 'NONE', #139, 35.00000000000000000 ) ;
#67 = COLOUR_RGB ( '',1.000000000000000000, 1.000000000000000000, 1.000000000000000000 ) ;
#68 = CARTESIAN_POINT ( 'NONE',  ( 0.000000000000000000, 0.000000000000000000, 12.49999999999998401 ) ) ;
#69 = CARTESIAN_POINT ( 'NONE',  ( 0.000000000000000000, 0.000000000000000000, 20.00000000000000000 ) ) ;
#70 = AXIS2_PLACEMENT_3D ( 'NONE', #266, #215, #22 ) ;
#71 = ORIENTED_EDGE ( 'NONE', *, *, #28, .F. ) ;
#72 = ORIENTED_EDGE ( 'NONE', *, *, #265, .T. ) ;
#73 = DIRECTION ( 'NONE',  ( -1.000000000000000000, 0.000000000000000000, 0.000000000000000000 ) ) ;
#74 = CARTESIAN_POINT ( 'NONE',  ( 0.000000000000000000, 0.000000000000000000, 42.61456729745161454 ) ) ;
#75 = AXIS2_PLACEMENT_3D ( 'NONE', #241, #140, #39 ) ;
#76 = SPHERICAL_SURFACE ( 'NONE', #279, 78.59999999999998010 ) ;
#77 = VERTEX_POINT ( 'NONE', #53 ) ;
#78 = DIRECTION ( 'NONE',  ( 1.000000000000000000, -0.000000000000000000, 0.000000000000000000 ) ) ;
#79 = EDGE_CURVE ( 'NONE', #269, #167, #243, .T. ) ;
#80 = DIRECTION ( 'NONE',  ( -1.000000000000000000, 0.000000000000000000, 0.000000000000000000 ) ) ;
#81 = VERTEX_POINT ( 'NONE', #255 ) ;
#82 =( GEOMETRIC_REPRESENTATION_CONTEXT ( 3 ) GLOBAL_UNCERTAINTY_ASSIGNED_CONTEXT ( ( #17 ) ) GLOBAL_UNIT_ASSIGNED_CONTEXT ( ( #210, #88, #27 ) ) REPRESENTATION_CONTEXT ( 'NONE', 'WORKASPACE' ) );
#83 = EDGE_LOOP ( 'NONE', ( #19, #212, #135, #34 ) ) ;
#84 = EDGE_CURVE ( 'NONE', #232, #174, #156, .T. ) ;
#85 = ORIENTED_EDGE ( 'NONE', *, *, #79, .F. ) ;
#86 = DIRECTION ( 'NONE',  ( -0.000000000000000000, -0.000000000000000000, 1.000000000000000000 ) ) ;
#87 = COLOUR_RGB ( '',1.000000000000000000, 1.000000000000000000, 1.000000000000000000 ) ;
#88 =( NAMED_UNIT ( * ) PLANE_ANGLE_UNIT ( ) SI_UNIT ( $, .RADIAN. ) );
#89 = EDGE_CURVE ( 'NONE', #251, #232, #276, .T. ) ;
#90 = MECHANICAL_DESIGN_GEOMETRIC_PRESENTATION_REPRESENTATION (  '', ( #56 ), #175 ) ;
#91 = DIRECTION ( 'NONE',  ( -0.000000000000000000, -0.000000000000000000, -1.000000000000000000 ) ) ;
#92 = AXIS2_PLACEMENT_3D ( 'NONE', #100, #86, #37 ) ;
#93 = DIRECTION ( 'NONE',  ( 1.000000000000000000, 0.000000000000000000, 0.000000000000000000 ) ) ;
#94 = DIRECTION ( 'NONE',  ( -0.000000000000000000, -0.000000000000000000, 1.000000000000000000 ) ) ;
#95 = VERTEX_POINT ( 'NONE', #50 ) ;
#96 = CYLINDRICAL_SURFACE ( 'NONE', #219, 12.69999999999999929 ) ;
#97 = AXIS2_PLACEMENT_3D ( 'NONE', #270, #234, #21 ) ;
#98 = EDGE_CURVE ( 'NONE', #167, #95, #271, .T. ) ;
#99 = CARTESIAN_POINT ( 'NONE',  ( 0.000000000000000000, 0.000000000000000000, 90.26719667488310961 ) ) ;
#100 = CARTESIAN_POINT ( 'NONE',  ( 0.000000000000000000, 0.000000000000000000, 12.67202957626752102 ) ) ;
#101 = FILL_AREA_STYLE ('',( #38 ) ) ;
#102 = AXIS2_PLACEMENT_3D ( 'NONE', #33, #94, #201 ) ;
#103 = AXIS2_PLACEMENT_3D ( 'NONE', #222, #246, #44 ) ;
#104 = EDGE_CURVE ( 'NONE', #174, #95, #55, .T. ) ;
#105 = EDGE_LOOP ( 'NONE', ( #125, #216, #259, #160 ) ) ;
#106 = DIRECTION ( 'NONE',  ( 0.000000000000000000, 1.000000000000000000, 0.000000000000000000 ) ) ;
#107 = DIRECTION ( 'NONE',  ( -0.7071067811865654473, 0.000000000000000000, -0.7071067811865296981 ) ) ;
#108 = ADVANCED_FACE ( 'NONE', ( #116 ), #138, .F. ) ;
#109 = DIRECTION ( 'NONE',  ( 0.7071067811865654473, 8.659560562355152260E-17, -0.7071067811865296981 ) ) ;
#110 =( LENGTH_UNIT ( ) NAMED_UNIT ( * ) SI_UNIT ( .MILLI., .METRE. ) );
#111 = ORIENTED_EDGE ( 'NONE', *, *, #36, .F. ) ;
#112 = ORIENTED_EDGE ( 'NONE', *, *, #98, .T. ) ;
#113 = ORIENTED_EDGE ( 'NONE', *, *, #130, .T. ) ;
#114 = EDGE_LOOP ( 'NONE', ( #61, #273, #85, #71 ) ) ;
#115 = ADVANCED_FACE ( 'NONE', ( #184 ), #275, .T. ) ;
#116 = FACE_OUTER_BOUND ( 'NONE', #83, .T. ) ;
#117 = AXIS2_PLACEMENT_3D ( 'NONE', #124, #129, #142 ) ;
#118 = MECHANICAL_DESIGN_GEOMETRIC_PRESENTATION_REPRESENTATION (  '', ( #224 ), #179 ) ;
#119 = DIRECTION ( 'NONE',  ( -1.000000000000000000, 0.000000000000000000, 0.000000000000000000 ) ) ;
#120 = ORIENTED_EDGE ( 'NONE', *, *, #127, .T. ) ;
#121 = ORIENTED_EDGE ( 'NONE', *, *, #89, .F. ) ;
#122 = CARTESIAN_POINT ( 'NONE',  ( -1.555301434917137841E-15, -12.69999999999999218, 10.00000000000000178 ) ) ;
#123 = ORIENTED_EDGE ( 'NONE', *, *, #79, .T. ) ;
#124 = CARTESIAN_POINT ( 'NONE',  ( 0.000000000000000000, 0.000000000000000000, 12.67202957626752102 ) ) ;
#125 = ORIENTED_EDGE ( 'NONE', *, *, #221, .F. ) ;
#126 = VERTEX_POINT ( 'NONE', #54 ) ;
#127 = EDGE_CURVE ( 'NONE', #159, #251, #143, .T. ) ;
#128 = AXIS2_PLACEMENT_3D ( 'NONE', #250, #206, #14 ) ;
#129 = DIRECTION ( 'NONE',  ( -0.000000000000000000, -0.000000000000000000, 1.000000000000000000 ) ) ;
#130 = EDGE_CURVE ( 'NONE', #248, #264, #60, .T. ) ;
#131 = LINE ( 'NONE', #218, #16 ) ;
#132 = DIRECTION ( 'NONE',  ( 0.000000000000000000, 0.000000000000000000, -1.000000000000000000 ) ) ;
#133 = DIRECTION ( 'NONE',  ( 0.000000000000000000, 1.000000000000000000, 0.000000000000000000 ) ) ;
#134 = CONICAL_SURFACE ( 'NONE', #172, 12.52797042373248004, 0.7853981633974734811 ) ;
#135 = ORIENTED_EDGE ( 'NONE', *, *, #89, .T. ) ;
#136 = CARTESIAN_POINT ( 'NONE',  ( 0.000000000000000000, 0.000000000000000000, 90.26719667488310961 ) ) ;
#137 = ORIENTED_EDGE ( 'NONE', *, *, #213, .F. ) ;
#138 = SPHERICAL_SURFACE ( 'NONE', #183, 78.59999999999998010 ) ;
#139 = AXIS2_PLACEMENT_3D ( 'NONE', #74, #280, #25 ) ;
#140 = DIRECTION ( 'NONE',  ( 1.000000000000000000, 0.000000000000000000, 0.000000000000000000 ) ) ;
#141 = CARTESIAN_POINT ( 'NONE',  ( 12.52797042373248182, 1.544767661420403699E-15, 12.67202957626752102 ) ) ;
#142 = DIRECTION ( 'NONE',  ( 1.000000000000000000, 0.000000000000000000, 0.000000000000000000 ) ) ;
#143 = CIRCLE ( 'NONE', #92, 12.52797042373248182 ) ;
#144 = ORIENTED_EDGE ( 'NONE', *, *, #149, .F. ) ;
#145 = SURFACE_SIDE_STYLE ('',( #3 ) ) ;
#146 = CARTESIAN_POINT ( 'NONE',  ( -12.52797042373248182, 0.000000000000000000, 12.67202957626752102 ) ) ;
#147 = CIRCLE ( 'NONE', #70, 12.69999999999999751 ) ;
#148 = PRODUCT_DEFINITION_FORMATION_WITH_SPECIFIED_SOURCE ( 'ÈÎºÎ', '', #46, .NOT_KNOWN. ) ;
#149 = EDGE_CURVE ( 'NONE', #174, #77, #239, .T. ) ;
#150 = DIRECTION ( 'NONE',  ( 1.000000000000000000, 0.000000000000000000, 0.000000000000000000 ) ) ;
#151 = SURFACE_SIDE_STYLE ('',( #244 ) ) ;
#152 = AXIS2_PLACEMENT_3D ( 'NONE', #5, #169, #214 ) ;
#153 = ADVANCED_FACE ( 'NONE', ( #281 ), #96, .T. ) ;
#154 =( NAMED_UNIT ( * ) PLANE_ANGLE_UNIT ( ) SI_UNIT ( $, .RADIAN. ) );
#155 = FILL_AREA_STYLE_COLOUR ( '', #67 ) ;
#156 = LINE ( 'NONE', #29, #178 ) ;
#157 = VECTOR ( 'NONE', #91, 1000.000000000000000 ) ;
#158 = DIRECTION ( 'NONE',  ( -0.000000000000000000, -0.000000000000000000, -1.000000000000000000 ) ) ;
#159 = VERTEX_POINT ( 'NONE', #146 ) ;
#160 = ORIENTED_EDGE ( 'NONE', *, *, #98, .F. ) ;
#161 = ORIENTED_EDGE ( 'NONE', *, *, #149, .T. ) ;
#162 = DIRECTION ( 'NONE',  ( -0.000000000000000000, -0.000000000000000000, 1.000000000000000000 ) ) ;
#163 = ORIENTED_EDGE ( 'NONE', *, *, #265, .F. ) ;
#164 = DIRECTION ( 'NONE',  ( -1.000000000000000000, 0.000000000000000000, 0.000000000000000000 ) ) ;
#165 = CARTESIAN_POINT ( 'NONE',  ( -1.534233887923679812E-15, -12.52797042373256531, 12.67202957626752102 ) ) ;
#166 = CARTESIAN_POINT ( 'NONE',  ( 0.000000000000000000, 0.000000000000000000, 12.67202957626749260 ) ) ;
#167 = VERTEX_POINT ( 'NONE', #122 ) ;
#168 = APPLICATION_CONTEXT ( 'automotive_design' ) ;
#169 = DIRECTION ( 'NONE',  ( -0.000000000000000000, -0.000000000000000000, 1.000000000000000000 ) ) ;
#170 = EDGE_CURVE ( 'NONE', #232, #264, #268, .T. ) ;
#171 = CIRCLE ( 'NONE', #249, 12.69999999999999929 ) ;
#172 = AXIS2_PLACEMENT_3D ( 'NONE', #166, #195, #164 ) ;
#173 = ORIENTED_EDGE ( 'NONE', *, *, #208, .F. ) ;
#174 = VERTEX_POINT ( 'NONE', #176 ) ;
#175 =( GEOMETRIC_REPRESENTATION_CONTEXT ( 3 ) GLOBAL_UNCERTAINTY_ASSIGNED_CONTEXT ( ( #40 ) ) GLOBAL_UNIT_ASSIGNED_CONTEXT ( ( #110, #154, #225 ) ) REPRESENTATION_CONTEXT ( 'NONE', 'WORKASPACE' ) );
#176 = CARTESIAN_POINT ( 'NONE',  ( 12.69999999999999929, 1.555301434917138433E-15, 12.49999999999998401 ) ) ;
#177 = PRODUCT_CONTEXT ( 'NONE', #231, 'mechanical' ) ;
#178 = VECTOR ( 'NONE', #109, 1000.000000000000000 ) ;
#179 =( GEOMETRIC_REPRESENTATION_CONTEXT ( 3 ) GLOBAL_UNCERTAINTY_ASSIGNED_CONTEXT ( ( #49 ) ) GLOBAL_UNIT_ASSIGNED_CONTEXT ( ( #47, #197, #7 ) ) REPRESENTATION_CONTEXT ( 'NONE', 'WORKASPACE' ) );
#180 = SPHERICAL_SURFACE ( 'NONE', #128, 35.00000000000000000 ) ;
#181 = ORIENTED_EDGE ( 'NONE', *, *, #170, .F. ) ;
#182 = PRODUCT_DEFINITION_SHAPE ( 'NONE', 'NONE',  #8 ) ;
#183 = AXIS2_PLACEMENT_3D ( 'NONE', #136, #119, #133 ) ;
#184 = FACE_OUTER_BOUND ( 'NONE', #233, .T. ) ;
#185 = ORIENTED_EDGE ( 'NONE', *, *, #51, .F. ) ;
#186 = LINE ( 'NONE', #203, #23 ) ;
#187 = EDGE_LOOP ( 'NONE', ( #189, #161, #13, #123, #112 ) ) ;
#188 = CIRCLE ( 'NONE', #63, 35.00000000000000000 ) ;
#189 = ORIENTED_EDGE ( 'NONE', *, *, #104, .F. ) ;
#190 = CARTESIAN_POINT ( 'NONE',  ( 0.000000000000000000, 4.812861920649096371E-15, 11.66719667488314016 ) ) ;
#191 = FACE_OUTER_BOUND ( 'NONE', #256, .T. ) ;
#192 = ORIENTED_EDGE ( 'NONE', *, *, #36, .T. ) ;
#193 = AXIS2_PLACEMENT_3D ( 'NONE', #99, #217, #267 ) ;
#194 = PRESENTATION_STYLE_ASSIGNMENT (( #237 ) ) ;
#195 = DIRECTION ( 'NONE',  ( 0.000000000000000000, 0.000000000000000000, -1.000000000000000000 ) ) ;
#196 = AXIS2_PLACEMENT_3D ( 'NONE', #272, #10, #12 ) ;
#197 =( NAMED_UNIT ( * ) PLANE_ANGLE_UNIT ( ) SI_UNIT ( $, .RADIAN. ) );
#198 = PRODUCT_RELATED_PRODUCT_CATEGORY ( 'part', '', ( #46 ) ) ;
#199 = APPLICATION_PROTOCOL_DEFINITION ( 'draft international standard', 'automotive_design', 1998, #168 ) ;
#200 = PRESENTATION_STYLE_ASSIGNMENT (( #220 ) ) ;
#201 = DIRECTION ( 'NONE',  ( 1.000000000000000000, 0.000000000000000000, 0.000000000000000000 ) ) ;
#202 = ADVANCED_FACE ( 'NONE', ( #191 ), #76, .F. ) ;
#203 = CARTESIAN_POINT ( 'NONE',  ( -12.69999999999999929, 0.000000000000000000, 20.00000000000000000 ) ) ;
#204 = ORIENTED_EDGE ( 'NONE', *, *, #261, .T. ) ;
#205 = CONICAL_SURFACE ( 'NONE', #6, 12.52797042373248004, 0.7853981633974734811 ) ;
#206 = DIRECTION ( 'NONE',  ( -1.000000000000000000, 0.000000000000000000, 0.000000000000000000 ) ) ;
#207 = CARTESIAN_POINT ( 'NONE',  ( 12.69999999999999929, 1.555301434917138433E-15, 20.00000000000000000 ) ) ;
#208 = EDGE_CURVE ( 'NONE', #264, #159, #2, .T. ) ;
#209 = EDGE_LOOP ( 'NONE', ( #181, #41, #111, #163, #173 ) ) ;
#210 =( LENGTH_UNIT ( ) NAMED_UNIT ( * ) SI_UNIT ( .MILLI., .METRE. ) );
#211 = FACE_OUTER_BOUND ( 'NONE', #236, .T. ) ;
#212 = ORIENTED_EDGE ( 'NONE', *, *, #213, .T. ) ;
#213 = EDGE_CURVE ( 'NONE', #248, #251, #30, .T. ) ;
#214 = DIRECTION ( 'NONE',  ( 1.000000000000000000, 0.000000000000000000, 0.000000000000000000 ) ) ;
#215 = DIRECTION ( 'NONE',  ( -0.000000000000000000, -0.000000000000000000, 1.000000000000000000 ) ) ;
#216 = ORIENTED_EDGE ( 'NONE', *, *, #227, .T. ) ;
#217 = DIRECTION ( 'NONE',  ( -1.000000000000000000, 1.224646799147353207E-16, 0.000000000000000000 ) ) ;
#218 = CARTESIAN_POINT ( 'NONE',  ( -12.52797042373248004, 0.000000000000000000, 12.67202957626749260 ) ) ;
#219 = AXIS2_PLACEMENT_3D ( 'NONE', #240, #1, #24 ) ;
#220 = SURFACE_STYLE_USAGE ( .BOTH. , #151 ) ;
#221 = EDGE_CURVE ( 'NONE', #126, #167, #66, .T. ) ;
#222 = CARTESIAN_POINT ( 'NONE',  ( 0.000000000000000000, 0.000000000000000000, 0.000000000000000000 ) ) ;
#223 = ADVANCED_BREP_SHAPE_REPRESENTATION ( 'GLM5-025B-150-IR1', ( #31, #103 ), #82 ) ;
#224 = STYLED_ITEM ( 'NONE', ( #200 ), #223 ) ;
#225 =( NAMED_UNIT ( * ) SI_UNIT ( $, .STERADIAN. ) SOLID_ANGLE_UNIT ( ) );
#226 = FACE_OUTER_BOUND ( 'NONE', #105, .T. ) ;
#227 = EDGE_CURVE ( 'NONE', #126, #81, #188, .T. ) ;
#228 = AXIS2_PLACEMENT_3D ( 'NONE', #277, #162, #247 ) ;
#229 = PRESENTATION_LAYER_ASSIGNMENT (  '', '', ( #224 ) ) ;
#230 = DIRECTION ( 'NONE',  ( 0.000000000000000000, 0.000000000000000000, -1.000000000000000000 ) ) ;
#231 = APPLICATION_CONTEXT ( 'automotive_design' ) ;
#232 = VERTEX_POINT ( 'NONE', #141 ) ;
#233 = EDGE_LOOP ( 'NONE', ( #192, #263, #204, #253, #185 ) ) ;
#234 = DIRECTION ( 'NONE',  ( -1.000000000000000000, 0.000000000000000000, 0.000000000000000000 ) ) ;
#235 = CIRCLE ( 'NONE', #258, 12.69999999999999751 ) ;
#236 = EDGE_LOOP ( 'NONE', ( #282, #121, #4, #72, #144 ) ) ;
#237 = SURFACE_STYLE_USAGE ( .BOTH. , #145 ) ;
#238 = ADVANCED_FACE ( 'NONE', ( #211 ), #134, .T. ) ;
#239 = CIRCLE ( 'NONE', #52, 12.69999999999999929 ) ;
#240 = CARTESIAN_POINT ( 'NONE',  ( 0.000000000000000000, 0.000000000000000000, 20.00000000000000000 ) ) ;
#241 = CARTESIAN_POINT ( 'NONE',  ( 0.000000000000000000, 0.000000000000000000, 90.26719667488310961 ) ) ;
#242 = SHAPE_DEFINITION_REPRESENTATION ( #182, #223 ) ;
#243 = CIRCLE ( 'NONE', #228, 12.69999999999999751 ) ;
#244 = SURFACE_STYLE_FILL_AREA ( #274 ) ;
#245 = DIRECTION ( 'NONE',  ( 0.000000000000000000, 0.000000000000000000, -1.000000000000000000 ) ) ;
#246 = DIRECTION ( 'NONE',  ( 0.000000000000000000, 0.000000000000000000, 1.000000000000000000 ) ) ;
#247 = DIRECTION ( 'NONE',  ( 1.000000000000000000, 0.000000000000000000, 0.000000000000000000 ) ) ;
#248 = VERTEX_POINT ( 'NONE', #190 ) ;
#249 = AXIS2_PLACEMENT_3D ( 'NONE', #68, #245, #93 ) ;
#250 = CARTESIAN_POINT ( 'NONE',  ( 0.000000000000000000, 0.000000000000000000, 42.61456729745161454 ) ) ;
#251 = VERTEX_POINT ( 'NONE', #165 ) ;
#252 = DIRECTION ( 'NONE',  ( -1.000000000000000000, 0.000000000000000000, 0.000000000000000000 ) ) ;
#253 = ORIENTED_EDGE ( 'NONE', *, *, #28, .T. ) ;
#254 = ADVANCED_FACE ( 'NONE', ( #262 ), #58, .T. ) ;
#255 = CARTESIAN_POINT ( 'NONE',  ( 0.000000000000000000, 12.69999999999999218, 10.00000000000000178 ) ) ;
#256 = EDGE_LOOP ( 'NONE', ( #137, #113, #42, #120 ) ) ;
#257 = CARTESIAN_POINT ( 'NONE',  ( -12.69999999999999751, 0.000000000000000000, 10.00000000000000000 ) ) ;
#258 = AXIS2_PLACEMENT_3D ( 'NONE', #43, #64, #150 ) ;
#259 = ORIENTED_EDGE ( 'NONE', *, *, #261, .F. ) ;
#260 = DIRECTION ( 'NONE',  ( 1.000000000000000000, 0.000000000000000000, 0.000000000000000000 ) ) ;
#261 = EDGE_CURVE ( 'NONE', #95, #81, #235, .T. ) ;
#262 = FACE_OUTER_BOUND ( 'NONE', #114, .T. ) ;
#263 = ORIENTED_EDGE ( 'NONE', *, *, #104, .T. ) ;
#264 = VERTEX_POINT ( 'NONE', #35 ) ;
#265 = EDGE_CURVE ( 'NONE', #159, #77, #131, .T. ) ;
#266 = CARTESIAN_POINT ( 'NONE',  ( 0.000000000000000000, 0.000000000000000000, 10.00000000000000000 ) ) ;
#267 = DIRECTION ( 'NONE',  ( -1.224646799147352961E-16, -1.000000000000000000, 0.000000000000000000 ) ) ;
#268 = CIRCLE ( 'NONE', #117, 12.52797042373248182 ) ;
#269 = VERTEX_POINT ( 'NONE', #257 ) ;
#270 = CARTESIAN_POINT ( 'NONE',  ( 0.000000000000000000, 0.000000000000000000, 42.61456729745161454 ) ) ;
#271 = CIRCLE ( 'NONE', #196, 12.69999999999999751 ) ;
#272 = CARTESIAN_POINT ( 'NONE',  ( 0.000000000000000000, 0.000000000000000000, 10.00000000000000000 ) ) ;
#273 = ORIENTED_EDGE ( 'NONE', *, *, #221, .T. ) ;
#274 = FILL_AREA_STYLE ('',( #155 ) ) ;
#275 = CYLINDRICAL_SURFACE ( 'NONE', #26, 12.69999999999999929 ) ;
#276 = CIRCLE ( 'NONE', #102, 12.52797042373248182 ) ;
#277 = CARTESIAN_POINT ( 'NONE',  ( 0.000000000000000000, 0.000000000000000000, 10.00000000000000000 ) ) ;
#278 = DIRECTION ( 'NONE',  ( -0.000000000000000000, -0.000000000000000000, -1.000000000000000000 ) ) ;
#279 = AXIS2_PLACEMENT_3D ( 'NONE', #20, #80, #106 ) ;
#280 = DIRECTION ( 'NONE',  ( -1.000000000000000000, 1.224646799147353207E-16, 0.000000000000000000 ) ) ;
#281 = FACE_OUTER_BOUND ( 'NONE', #187, .T. ) ;
#282 = ORIENTED_EDGE ( 'NONE', *, *, #84, .F. ) ;
ENDSEC;
END-ISO-10303-21;
