ISO-10303-21;
HEADER;
FILE_DESCRIPTION (( 'STEP AP214' ),
    '1' );
FILE_NAME ('GLM5-025B-100-IR1.STEP',
    '2024-08-09T03:10:45',
    ( 'Windows User' ),
    ( 'P R C' ),
    'SwSTEP 2.0',
    'SolidWorks 2022',
    '' );
FILE_SCHEMA (( 'AUTOMOTIVE_DESIGN' ));
ENDSEC;

DATA;
#1 = EDGE_CURVE ( 'NONE', #48, #211, #158, .T. ) ;
#2 = DIRECTION ( 'NONE',  ( -0.000000000000000000, -0.000000000000000000, -1.000000000000000000 ) ) ;
#3 = AXIS2_PLACEMENT_3D ( 'NONE', #216, #56, #214 ) ;
#4 = DIRECTION ( 'NONE',  ( 0.000000000000000000, 1.000000000000000000, 0.000000000000000000 ) ) ;
#5 = FACE_OUTER_BOUND ( 'NONE', #269, .T. ) ;
#6 = ORIENTED_EDGE ( 'NONE', *, *, #263, .T. ) ;
#7 = ORIENTED_EDGE ( 'NONE', *, *, #1, .T. ) ;
#8 = VERTEX_POINT ( 'NONE', #65 ) ;
#9 = DIRECTION ( 'NONE',  ( 0.000000000000000000, 0.000000000000000000, 1.000000000000000000 ) ) ;
#10 = AXIS2_PLACEMENT_3D ( 'NONE', #125, #122, #194 ) ;
#11 = VERTEX_POINT ( 'NONE', #235 ) ;
#12 = ORIENTED_EDGE ( 'NONE', *, *, #1, .F. ) ;
#13 = CARTESIAN_POINT ( 'NONE',  ( 0.000000000000000000, 2.253350110431129645E-15, 9.439108268743709118 ) ) ;
#14 = DIRECTION ( 'NONE',  ( -0.000000000000000000, -0.000000000000000000, -1.000000000000000000 ) ) ;
#15 = CIRCLE ( 'NONE', #81, 12.55351156951247660 ) ;
#16 = SURFACE_STYLE_FILL_AREA ( #150 ) ;
#17 =( LENGTH_UNIT ( ) NAMED_UNIT ( * ) SI_UNIT ( .MILLI., .METRE. ) );
#18 = DIRECTION ( 'NONE',  ( -1.000000000000000000, 1.224646799147353207E-16, 0.000000000000000000 ) ) ;
#19 = EDGE_CURVE ( 'NONE', #270, #69, #178, .T. ) ;
#20 = CIRCLE ( 'NONE', #98, 12.69999999999999751 ) ;
#21 = FACE_OUTER_BOUND ( 'NONE', #51, .T. ) ;
#22 = AXIS2_PLACEMENT_3D ( 'NONE', #118, #2, #198 ) ;
#23 = DIRECTION ( 'NONE',  ( 1.000000000000000000, 0.000000000000000000, 0.000000000000000000 ) ) ;
#24 = ORIENTED_EDGE ( 'NONE', *, *, #208, .T. ) ;
#25 = SPHERICAL_SURFACE ( 'NONE', #144, 19.99999999999999645 ) ;
#26 = AXIS2_PLACEMENT_3D ( 'NONE', #42, #129, #265 ) ;
#27 = EDGE_LOOP ( 'NONE', ( #132, #251, #92, #24, #7 ) ) ;
#28 = PRODUCT_RELATED_PRODUCT_CATEGORY ( 'part', '', ( #79 ) ) ;
#29 = EDGE_CURVE ( 'NONE', #69, #153, #77, .T. ) ;
#30 = ORIENTED_EDGE ( 'NONE', *, *, #179, .T. ) ;
#31 = DIRECTION ( 'NONE',  ( 0.000000000000000000, 0.000000000000000000, -1.000000000000000000 ) ) ;
#32 = DIRECTION ( 'NONE',  ( 0.000000000000000000, 0.000000000000000000, -1.000000000000000000 ) ) ;
#33 =( LENGTH_UNIT ( ) NAMED_UNIT ( * ) SI_UNIT ( .MILLI., .METRE. ) );
#34 = DIRECTION ( 'NONE',  ( -0.7071067811865392461, 0.000000000000000000, -0.7071067811865558994 ) ) ;
#35 = FILL_AREA_STYLE_COLOUR ( '', #67 ) ;
#36 = CARTESIAN_POINT ( 'NONE',  ( 0.000000000000000000, 0.000000000000000000, 25.45024271654008885 ) ) ;
#37 = DIRECTION ( 'NONE',  ( -0.000000000000000000, -0.000000000000000000, -1.000000000000000000 ) ) ;
#38 = FILL_AREA_STYLE_COLOUR ( '', #260 ) ;
#39 = EDGE_CURVE ( 'NONE', #153, #69, #167, .T. ) ;
#40 = FACE_OUTER_BOUND ( 'NONE', #71, .T. ) ;
#41 = EDGE_CURVE ( 'NONE', #135, #153, #115, .T. ) ;
#42 = CARTESIAN_POINT ( 'NONE',  ( 0.000000000000000000, 0.000000000000000000, 11.64648843048751026 ) ) ;
#43 = SPHERICAL_SURFACE ( 'NONE', #47, 36.79999999999999716 ) ;
#44 = PRESENTATION_LAYER_ASSIGNMENT (  '', '', ( #123 ) ) ;
#45 = DIRECTION ( 'NONE',  ( -0.000000000000000000, -0.000000000000000000, 1.000000000000000000 ) ) ;
#46 = ORIENTED_EDGE ( 'NONE', *, *, #63, .F. ) ;
#47 = AXIS2_PLACEMENT_3D ( 'NONE', #128, #227, #61 ) ;
#48 = VERTEX_POINT ( 'NONE', #82 ) ;
#49 = CIRCLE ( 'NONE', #140, 12.55351156951247660 ) ;
#50 = SURFACE_SIDE_STYLE ('',( #183 ) ) ;
#51 = EDGE_LOOP ( 'NONE', ( #243, #236, #93, #268 ) ) ;
#52 = EDGE_LOOP ( 'NONE', ( #253, #110, #207, #80, #96 ) ) ;
#53 = ORIENTED_EDGE ( 'NONE', *, *, #75, .F. ) ;
#54 = FACE_OUTER_BOUND ( 'NONE', #184, .T. ) ;
#55 = DIRECTION ( 'NONE',  ( 0.000000000000000000, 1.000000000000000000, 0.000000000000000000 ) ) ;
#56 = DIRECTION ( 'NONE',  ( 0.000000000000000000, 0.000000000000000000, -1.000000000000000000 ) ) ;
#57 = AXIS2_PLACEMENT_3D ( 'NONE', #165, #18, #259 ) ;
#58 = AXIS2_PLACEMENT_3D ( 'NONE', #224, #106, #23 ) ;
#59 = CARTESIAN_POINT ( 'NONE',  ( 0.000000000000000000, 0.000000000000000000, 11.64648843048750315 ) ) ;
#60 = DIRECTION ( 'NONE',  ( -1.000000000000000000, 0.000000000000000000, 0.000000000000000000 ) ) ;
#61 = DIRECTION ( 'NONE',  ( 0.000000000000000000, 1.000000000000000000, 0.000000000000000000 ) ) ;
#62 = CARTESIAN_POINT ( 'NONE',  ( -12.55351156951247482, 0.000000000000000000, 11.64648843048751026 ) ) ;
#63 = EDGE_CURVE ( 'NONE', #135, #154, #49, .T. ) ;
#64 = ADVANCED_FACE ( 'NONE', ( #40 ), #173, .T. ) ;
#65 = CARTESIAN_POINT ( 'NONE',  ( -1.537361776166271362E-15, -12.55351156951246949, 11.64648843048750315 ) ) ;
#66 = CARTESIAN_POINT ( 'NONE',  ( 12.69999999999999929, 1.555301434917138433E-15, 20.00000000000000000 ) ) ;
#67 = COLOUR_RGB ( '',1.000000000000000000, 1.000000000000000000, 1.000000000000000000 ) ;
#68 = UNCERTAINTY_MEASURE_WITH_UNIT (LENGTH_MEASURE( 1.000000000000000082E-05 ), #189, 'distance_accuracy_value', 'NONE');
#69 = VERTEX_POINT ( 'NONE', #264 ) ;
#70 = SURFACE_STYLE_USAGE ( .BOTH. , #50 ) ;
#71 = EDGE_LOOP ( 'NONE', ( #139, #204, #228, #161, #181 ) ) ;
#72 = CARTESIAN_POINT ( 'NONE',  ( 0.000000000000000000, 0.000000000000000000, 11.64648843048750315 ) ) ;
#73 = CARTESIAN_POINT ( 'NONE',  ( 0.000000000000000000, 0.000000000000000000, 11.64648843048750315 ) ) ;
#74 = DIRECTION ( 'NONE',  ( -1.000000000000000000, 1.224646799147353207E-16, 0.000000000000000000 ) ) ;
#75 = EDGE_CURVE ( 'NONE', #11, #48, #83, .T. ) ;
#76 = DIRECTION ( 'NONE',  ( 0.7071067811865392461, 8.659560562354831785E-17, -0.7071067811865558994 ) ) ;
#77 = CIRCLE ( 'NONE', #273, 12.69999999999999929 ) ;
#78 = CIRCLE ( 'NONE', #226, 36.79999999999999716 ) ;
#79 = PRODUCT ( 'GLM5-025B-100-IR1', 'GLM5-025B-100-IR1', '', ( #160 ) ) ;
#80 = ORIENTED_EDGE ( 'NONE', *, *, #19, .T. ) ;
#81 = AXIS2_PLACEMENT_3D ( 'NONE', #73, #164, #114 ) ;
#82 = CARTESIAN_POINT ( 'NONE',  ( -1.555301434917138038E-15, -12.69999999999999396, 9.999999999999998224 ) ) ;
#83 = CIRCLE ( 'NONE', #185, 19.99999999999999645 ) ;
#84 = ADVANCED_FACE ( 'NONE', ( #54 ), #221, .T. ) ;
#85 = CARTESIAN_POINT ( 'NONE',  ( 0.000000000000000000, 0.000000000000000000, 10.00000000000000000 ) ) ;
#86 = AXIS2_PLACEMENT_3D ( 'NONE', #215, #9, #274 ) ;
#87 = DIRECTION ( 'NONE',  ( 1.000000000000000000, 0.000000000000000000, 0.000000000000000000 ) ) ;
#88 = EDGE_CURVE ( 'NONE', #69, #188, #101, .T. ) ;
#89 = EDGE_LOOP ( 'NONE', ( #247, #276, #6, #237 ) ) ;
#90 = EDGE_LOOP ( 'NONE', ( #46, #171, #210, #113, #209 ) ) ;
#91 = ADVANCED_BREP_SHAPE_REPRESENTATION ( 'GLM5-025B-100-IR1', ( #169, #86 ), #186 ) ;
#92 = ORIENTED_EDGE ( 'NONE', *, *, #88, .T. ) ;
#93 = ORIENTED_EDGE ( 'NONE', *, *, #208, .F. ) ;
#94 = AXIS2_PLACEMENT_3D ( 'NONE', #59, #282, #99 ) ;
#95 = APPLICATION_PROTOCOL_DEFINITION ( 'draft international standard', 'automotive_design', 1998, #163 ) ;
#96 = ORIENTED_EDGE ( 'NONE', *, *, #39, .F. ) ;
#97 = DIRECTION ( 'NONE',  ( 1.000000000000000000, -0.000000000000000000, 0.000000000000000000 ) ) ;
#98 = AXIS2_PLACEMENT_3D ( 'NONE', #266, #45, #229 ) ;
#99 = DIRECTION ( 'NONE',  ( 1.000000000000000000, 0.000000000000000000, 0.000000000000000000 ) ) ;
#100 = ADVANCED_FACE ( 'NONE', ( #142 ), #121, .T. ) ;
#101 = LINE ( 'NONE', #124, #156 ) ;
#102 = CARTESIAN_POINT ( 'NONE',  ( 0.000000000000000000, 0.000000000000000000, 46.23910826874370628 ) ) ;
#103 = CARTESIAN_POINT ( 'NONE',  ( 0.000000000000000000, 0.000000000000000000, 46.23910826874370628 ) ) ;
#104 = VECTOR ( 'NONE', #34, 999.9999999999998863 ) ;
#105 = PRESENTATION_LAYER_ASSIGNMENT (  '', '', ( #241 ) ) ;
#106 = DIRECTION ( 'NONE',  ( -0.000000000000000000, -0.000000000000000000, 1.000000000000000000 ) ) ;
#107 = DIRECTION ( 'NONE',  ( 1.000000000000000000, 0.000000000000000000, 0.000000000000000000 ) ) ;
#108 = ORIENTED_EDGE ( 'NONE', *, *, #201, .F. ) ;
#109 = CARTESIAN_POINT ( 'NONE',  ( 0.000000000000000000, 0.000000000000000000, 25.45024271654008885 ) ) ;
#110 = ORIENTED_EDGE ( 'NONE', *, *, #263, .F. ) ;
#111 = DIRECTION ( 'NONE',  ( 0.000000000000000000, 0.000000000000000000, -1.000000000000000000 ) ) ;
#112 = DIRECTION ( 'NONE',  ( -0.000000000000000000, -0.000000000000000000, 1.000000000000000000 ) ) ;
#113 = ORIENTED_EDGE ( 'NONE', *, *, #19, .F. ) ;
#114 = DIRECTION ( 'NONE',  ( 1.000000000000000000, 0.000000000000000000, 0.000000000000000000 ) ) ;
#115 = LINE ( 'NONE', #212, #172 ) ;
#116 = CONICAL_SURFACE ( 'NONE', #26, 12.55351156951247482, 0.7853981633974365106 ) ;
#117 = PRESENTATION_STYLE_ASSIGNMENT (( #70 ) ) ;
#118 = CARTESIAN_POINT ( 'NONE',  ( 0.000000000000000000, 0.000000000000000000, 20.00000000000000000 ) ) ;
#119 =( NAMED_UNIT ( * ) SI_UNIT ( $, .STERADIAN. ) SOLID_ANGLE_UNIT ( ) );
#120 = ADVANCED_FACE ( 'NONE', ( #220 ), #267, .T. ) ;
#121 = CYLINDRICAL_SURFACE ( 'NONE', #22, 12.69999999999999929 ) ;
#122 = DIRECTION ( 'NONE',  ( -1.000000000000000000, 0.000000000000000000, 0.000000000000000000 ) ) ;
#123 = STYLED_ITEM ( 'NONE', ( #145 ), #169 ) ;
#124 = CARTESIAN_POINT ( 'NONE',  ( -12.69999999999999929, 0.000000000000000000, 20.00000000000000000 ) ) ;
#125 = CARTESIAN_POINT ( 'NONE',  ( 0.000000000000000000, 0.000000000000000000, 25.45024271654008885 ) ) ;
#126 = EDGE_CURVE ( 'NONE', #154, #270, #248, .T. ) ;
#127 = DIRECTION ( 'NONE',  ( 0.000000000000000000, 0.000000000000000000, -1.000000000000000000 ) ) ;
#128 = CARTESIAN_POINT ( 'NONE',  ( 0.000000000000000000, 0.000000000000000000, 46.23910826874370628 ) ) ;
#129 = DIRECTION ( 'NONE',  ( 0.000000000000000000, 0.000000000000000000, -1.000000000000000000 ) ) ;
#130 = DIRECTION ( 'NONE',  ( 1.000000000000000000, 0.000000000000000000, 0.000000000000000000 ) ) ;
#131 = VECTOR ( 'NONE', #252, 1000.000000000000000 ) ;
#132 = ORIENTED_EDGE ( 'NONE', *, *, #256, .F. ) ;
#133 = EDGE_CURVE ( 'NONE', #137, #8, #219, .T. ) ;
#134 =( NAMED_UNIT ( * ) PLANE_ANGLE_UNIT ( ) SI_UNIT ( $, .RADIAN. ) );
#135 = VERTEX_POINT ( 'NONE', #280 ) ;
#136 = MECHANICAL_DESIGN_GEOMETRIC_PRESENTATION_REPRESENTATION (  '', ( #241 ), #197 ) ;
#137 = VERTEX_POINT ( 'NONE', #13 ) ;
#138 =( NAMED_UNIT ( * ) PLANE_ANGLE_UNIT ( ) SI_UNIT ( $, .RADIAN. ) );
#139 = ORIENTED_EDGE ( 'NONE', *, *, #29, .T. ) ;
#140 = AXIS2_PLACEMENT_3D ( 'NONE', #72, #199, #258 ) ;
#141 =( NAMED_UNIT ( * ) SI_UNIT ( $, .STERADIAN. ) SOLID_ANGLE_UNIT ( ) );
#142 = FACE_OUTER_BOUND ( 'NONE', #27, .T. ) ;
#143 = CARTESIAN_POINT ( 'NONE',  ( 12.69999999999999929, 1.555301434917138433E-15, 11.49999999999998224 ) ) ;
#144 = AXIS2_PLACEMENT_3D ( 'NONE', #205, #60, #4 ) ;
#145 = PRESENTATION_STYLE_ASSIGNMENT (( #166 ) ) ;
#146 = AXIS2_PLACEMENT_3D ( 'NONE', #238, #14, #255 ) ;
#147 = AXIS2_PLACEMENT_3D ( 'NONE', #233, #112, #250 ) ;
#148 = PRODUCT_DEFINITION_CONTEXT ( 'detailed design', #202, 'design' ) ;
#149 = ADVANCED_FACE ( 'NONE', ( #195 ), #192, .F. ) ;
#150 = FILL_AREA_STYLE ('',( #38 ) ) ;
#151 = CARTESIAN_POINT ( 'NONE',  ( 12.69999999999999751, 1.555301434917138235E-15, 10.00000000000000000 ) ) ;
#152 = AXIS2_PLACEMENT_3D ( 'NONE', #275, #111, #159 ) ;
#153 = VERTEX_POINT ( 'NONE', #143 ) ;
#154 = VERTEX_POINT ( 'NONE', #240 ) ;
#155 = AXIS2_PLACEMENT_3D ( 'NONE', #85, #174, #107 ) ;
#156 = VECTOR ( 'NONE', #37, 1000.000000000000000 ) ;
#157 = ORIENTED_EDGE ( 'NONE', *, *, #239, .T. ) ;
#158 = CIRCLE ( 'NONE', #147, 12.69999999999999751 ) ;
#159 = DIRECTION ( 'NONE',  ( 1.000000000000000000, 0.000000000000000000, 0.000000000000000000 ) ) ;
#160 = PRODUCT_CONTEXT ( 'NONE', #163, 'mechanical' ) ;
#161 = ORIENTED_EDGE ( 'NONE', *, *, #225, .T. ) ;
#162 = DIRECTION ( 'NONE',  ( -1.224646799147353207E-16, -1.000000000000000000, 0.000000000000000000 ) ) ;
#163 = APPLICATION_CONTEXT ( 'automotive_design' ) ;
#164 = DIRECTION ( 'NONE',  ( -0.000000000000000000, -0.000000000000000000, 1.000000000000000000 ) ) ;
#165 = CARTESIAN_POINT ( 'NONE',  ( 0.000000000000000000, 0.000000000000000000, 46.23910826874370628 ) ) ;
#166 = SURFACE_STYLE_USAGE ( .BOTH. , #281 ) ;
#167 = CIRCLE ( 'NONE', #152, 12.69999999999999929 ) ;
#168 =( GEOMETRIC_REPRESENTATION_CONTEXT ( 3 ) GLOBAL_UNCERTAINTY_ASSIGNED_CONTEXT ( ( #234 ) ) GLOBAL_UNIT_ASSIGNED_CONTEXT ( ( #17, #261, #222 ) ) REPRESENTATION_CONTEXT ( 'NONE', 'WORKASPACE' ) );
#169 = MANIFOLD_SOLID_BREP ( 'µ¹½Ç1', #177 ) ;
#170 = CIRCLE ( 'NONE', #231, 12.55351156951247660 ) ;
#171 = ORIENTED_EDGE ( 'NONE', *, *, #41, .T. ) ;
#172 = VECTOR ( 'NONE', #76, 999.9999999999998863 ) ;
#173 = CYLINDRICAL_SURFACE ( 'NONE', #146, 12.69999999999999929 ) ;
#174 = DIRECTION ( 'NONE',  ( -0.000000000000000000, -0.000000000000000000, 1.000000000000000000 ) ) ;
#175 = PRODUCT_DEFINITION_FORMATION_WITH_SPECIFIED_SOURCE ( 'ÈÎºÎ', '', #79, .NOT_KNOWN. ) ;
#176 = FACE_OUTER_BOUND ( 'NONE', #90, .T. ) ;
#177 = CLOSED_SHELL ( 'NONE', ( #182, #196, #149, #64, #100, #218, #84, #120 ) ) ;
#178 = LINE ( 'NONE', #62, #104 ) ;
#179 = EDGE_CURVE ( 'NONE', #137, #154, #78, .T. ) ;
#180 = UNCERTAINTY_MEASURE_WITH_UNIT (LENGTH_MEASURE( 1.000000000000000082E-05 ), #33, 'distance_accuracy_value', 'NONE');
#181 = ORIENTED_EDGE ( 'NONE', *, *, #88, .F. ) ;
#182 = ADVANCED_FACE ( 'NONE', ( #176 ), #116, .T. ) ;
#183 = SURFACE_STYLE_FILL_AREA ( #191 ) ;
#184 = EDGE_LOOP ( 'NONE', ( #53, #157, #108, #12 ) ) ;
#185 = AXIS2_PLACEMENT_3D ( 'NONE', #36, #74, #162 ) ;
#186 =( GEOMETRIC_REPRESENTATION_CONTEXT ( 3 ) GLOBAL_UNCERTAINTY_ASSIGNED_CONTEXT ( ( #180 ) ) GLOBAL_UNIT_ASSIGNED_CONTEXT ( ( #33, #138, #119 ) ) REPRESENTATION_CONTEXT ( 'NONE', 'WORKASPACE' ) );
#187 = CARTESIAN_POINT ( 'NONE',  ( -12.55351156951247660, 0.000000000000000000, 11.64648843048750315 ) ) ;
#188 = VERTEX_POINT ( 'NONE', #245 ) ;
#189 =( LENGTH_UNIT ( ) NAMED_UNIT ( * ) SI_UNIT ( .MILLI., .METRE. ) );
#190 = CARTESIAN_POINT ( 'NONE',  ( 0.000000000000000000, 0.000000000000000000, 11.49999999999998224 ) ) ;
#191 = FILL_AREA_STYLE ('',( #35 ) ) ;
#192 = SPHERICAL_SURFACE ( 'NONE', #244, 36.79999999999999716 ) ;
#193 = CIRCLE ( 'NONE', #217, 19.99999999999999645 ) ;
#194 = DIRECTION ( 'NONE',  ( 0.000000000000000000, 1.000000000000000000, 0.000000000000000000 ) ) ;
#195 = FACE_OUTER_BOUND ( 'NONE', #89, .T. ) ;
#196 = ADVANCED_FACE ( 'NONE', ( #21 ), #25, .T. ) ;
#197 =( GEOMETRIC_REPRESENTATION_CONTEXT ( 3 ) GLOBAL_UNCERTAINTY_ASSIGNED_CONTEXT ( ( #68 ) ) GLOBAL_UNIT_ASSIGNED_CONTEXT ( ( #189, #134, #141 ) ) REPRESENTATION_CONTEXT ( 'NONE', 'WORKASPACE' ) );
#198 = DIRECTION ( 'NONE',  ( -1.000000000000000000, 0.000000000000000000, 0.000000000000000000 ) ) ;
#199 = DIRECTION ( 'NONE',  ( -0.000000000000000000, -0.000000000000000000, 1.000000000000000000 ) ) ;
#200 = MECHANICAL_DESIGN_GEOMETRIC_PRESENTATION_REPRESENTATION (  '', ( #123 ), #168 ) ;
#201 = EDGE_CURVE ( 'NONE', #211, #206, #262, .T. ) ;
#202 = APPLICATION_CONTEXT ( 'automotive_design' ) ;
#203 = CARTESIAN_POINT ( 'NONE',  ( 0.000000000000000000, 12.69999999999999396, 9.999999999999998224 ) ) ;
#204 = ORIENTED_EDGE ( 'NONE', *, *, #256, .T. ) ;
#205 = CARTESIAN_POINT ( 'NONE',  ( 0.000000000000000000, 0.000000000000000000, 25.45024271654008885 ) ) ;
#206 = VERTEX_POINT ( 'NONE', #203 ) ;
#207 = ORIENTED_EDGE ( 'NONE', *, *, #278, .F. ) ;
#208 = EDGE_CURVE ( 'NONE', #188, #48, #271, .T. ) ;
#209 = ORIENTED_EDGE ( 'NONE', *, *, #126, .F. ) ;
#210 = ORIENTED_EDGE ( 'NONE', *, *, #29, .F. ) ;
#211 = VERTEX_POINT ( 'NONE', #151 ) ;
#212 = CARTESIAN_POINT ( 'NONE',  ( 12.55351156951247482, 1.537361776166271757E-15, 11.64648843048751026 ) ) ;
#213 = LINE ( 'NONE', #66, #131 ) ;
#214 = DIRECTION ( 'NONE',  ( -1.000000000000000000, 0.000000000000000000, 0.000000000000000000 ) ) ;
#215 = CARTESIAN_POINT ( 'NONE',  ( 0.000000000000000000, 0.000000000000000000, 0.000000000000000000 ) ) ;
#216 = CARTESIAN_POINT ( 'NONE',  ( 0.000000000000000000, 0.000000000000000000, 11.64648843048751026 ) ) ;
#217 = AXIS2_PLACEMENT_3D ( 'NONE', #109, #97, #31 ) ;
#218 = ADVANCED_FACE ( 'NONE', ( #5 ), #43, .F. ) ;
#219 = CIRCLE ( 'NONE', #57, 36.79999999999999716 ) ;
#220 = FACE_OUTER_BOUND ( 'NONE', #52, .T. ) ;
#221 = SPHERICAL_SURFACE ( 'NONE', #10, 19.99999999999999645 ) ;
#222 =( NAMED_UNIT ( * ) SI_UNIT ( $, .STERADIAN. ) SOLID_ANGLE_UNIT ( ) );
#223 = PRODUCT_DEFINITION_SHAPE ( 'NONE', 'NONE',  #272 ) ;
#224 = CARTESIAN_POINT ( 'NONE',  ( 0.000000000000000000, 0.000000000000000000, 10.00000000000000000 ) ) ;
#225 = EDGE_CURVE ( 'NONE', #206, #188, #20, .T. ) ;
#226 = AXIS2_PLACEMENT_3D ( 'NONE', #102, #87, #127 ) ;
#227 = DIRECTION ( 'NONE',  ( -1.000000000000000000, 0.000000000000000000, 0.000000000000000000 ) ) ;
#228 = ORIENTED_EDGE ( 'NONE', *, *, #201, .T. ) ;
#229 = DIRECTION ( 'NONE',  ( 1.000000000000000000, 0.000000000000000000, 0.000000000000000000 ) ) ;
#230 = ORIENTED_EDGE ( 'NONE', *, *, #133, .F. ) ;
#231 = AXIS2_PLACEMENT_3D ( 'NONE', #279, #257, #232 ) ;
#232 = DIRECTION ( 'NONE',  ( 1.000000000000000000, 0.000000000000000000, 0.000000000000000000 ) ) ;
#233 = CARTESIAN_POINT ( 'NONE',  ( 0.000000000000000000, 0.000000000000000000, 10.00000000000000000 ) ) ;
#234 = UNCERTAINTY_MEASURE_WITH_UNIT (LENGTH_MEASURE( 1.000000000000000082E-05 ), #17, 'distance_accuracy_value', 'NONE');
#235 = CARTESIAN_POINT ( 'NONE',  ( 0.000000000000000000, 1.224646799147353059E-15, 5.450242716540092403 ) ) ;
#236 = ORIENTED_EDGE ( 'NONE', *, *, #75, .T. ) ;
#237 = ORIENTED_EDGE ( 'NONE', *, *, #63, .T. ) ;
#238 = CARTESIAN_POINT ( 'NONE',  ( 0.000000000000000000, 0.000000000000000000, 20.00000000000000000 ) ) ;
#239 = EDGE_CURVE ( 'NONE', #11, #206, #193, .T. ) ;
#240 = CARTESIAN_POINT ( 'NONE',  ( 0.000000000000000000, 12.55351156951246949, 11.64648843048750315 ) ) ;
#241 = STYLED_ITEM ( 'NONE', ( #117 ), #91 ) ;
#242 = ORIENTED_EDGE ( 'NONE', *, *, #126, .T. ) ;
#243 = ORIENTED_EDGE ( 'NONE', *, *, #239, .F. ) ;
#244 = AXIS2_PLACEMENT_3D ( 'NONE', #103, #277, #55 ) ;
#245 = CARTESIAN_POINT ( 'NONE',  ( -12.69999999999999751, 0.000000000000000000, 10.00000000000000000 ) ) ;
#246 = ORIENTED_EDGE ( 'NONE', *, *, #278, .T. ) ;
#247 = ORIENTED_EDGE ( 'NONE', *, *, #179, .F. ) ;
#248 = CIRCLE ( 'NONE', #94, 12.55351156951247660 ) ;
#249 = APPLICATION_PROTOCOL_DEFINITION ( 'draft international standard', 'automotive_design', 1998, #202 ) ;
#250 = DIRECTION ( 'NONE',  ( 1.000000000000000000, 0.000000000000000000, 0.000000000000000000 ) ) ;
#251 = ORIENTED_EDGE ( 'NONE', *, *, #39, .T. ) ;
#252 = DIRECTION ( 'NONE',  ( -0.000000000000000000, -0.000000000000000000, -1.000000000000000000 ) ) ;
#253 = ORIENTED_EDGE ( 'NONE', *, *, #41, .F. ) ;
#254 = SHAPE_DEFINITION_REPRESENTATION ( #223, #91 ) ;
#255 = DIRECTION ( 'NONE',  ( -1.000000000000000000, 0.000000000000000000, 0.000000000000000000 ) ) ;
#256 = EDGE_CURVE ( 'NONE', #153, #211, #213, .T. ) ;
#257 = DIRECTION ( 'NONE',  ( -0.000000000000000000, -0.000000000000000000, 1.000000000000000000 ) ) ;
#258 = DIRECTION ( 'NONE',  ( 1.000000000000000000, 0.000000000000000000, 0.000000000000000000 ) ) ;
#259 = DIRECTION ( 'NONE',  ( -1.224646799147353207E-16, -1.000000000000000000, 0.000000000000000000 ) ) ;
#260 = COLOUR_RGB ( '',1.000000000000000000, 1.000000000000000000, 1.000000000000000000 ) ;
#261 =( NAMED_UNIT ( * ) PLANE_ANGLE_UNIT ( ) SI_UNIT ( $, .RADIAN. ) );
#262 = CIRCLE ( 'NONE', #58, 12.69999999999999751 ) ;
#263 = EDGE_CURVE ( 'NONE', #8, #135, #170, .T. ) ;
#264 = CARTESIAN_POINT ( 'NONE',  ( -12.69999999999999929, 0.000000000000000000, 11.49999999999998224 ) ) ;
#265 = DIRECTION ( 'NONE',  ( -1.000000000000000000, 0.000000000000000000, 0.000000000000000000 ) ) ;
#266 = CARTESIAN_POINT ( 'NONE',  ( 0.000000000000000000, 0.000000000000000000, 10.00000000000000000 ) ) ;
#267 = CONICAL_SURFACE ( 'NONE', #3, 12.55351156951247482, 0.7853981633974365106 ) ;
#268 = ORIENTED_EDGE ( 'NONE', *, *, #225, .F. ) ;
#269 = EDGE_LOOP ( 'NONE', ( #230, #30, #242, #246 ) ) ;
#270 = VERTEX_POINT ( 'NONE', #187 ) ;
#271 = CIRCLE ( 'NONE', #155, 12.69999999999999751 ) ;
#272 = PRODUCT_DEFINITION ( 'Î´Öª', '', #175, #148 ) ;
#273 = AXIS2_PLACEMENT_3D ( 'NONE', #190, #32, #130 ) ;
#274 = DIRECTION ( 'NONE',  ( 1.000000000000000000, 0.000000000000000000, 0.000000000000000000 ) ) ;
#275 = CARTESIAN_POINT ( 'NONE',  ( 0.000000000000000000, 0.000000000000000000, 11.49999999999998224 ) ) ;
#276 = ORIENTED_EDGE ( 'NONE', *, *, #133, .T. ) ;
#277 = DIRECTION ( 'NONE',  ( -1.000000000000000000, 0.000000000000000000, 0.000000000000000000 ) ) ;
#278 = EDGE_CURVE ( 'NONE', #270, #8, #15, .T. ) ;
#279 = CARTESIAN_POINT ( 'NONE',  ( 0.000000000000000000, 0.000000000000000000, 11.64648843048750315 ) ) ;
#280 = CARTESIAN_POINT ( 'NONE',  ( 12.55351156951247660, 1.546331605541705390E-15, 11.64648843048750315 ) ) ;
#281 = SURFACE_SIDE_STYLE ('',( #16 ) ) ;
#282 = DIRECTION ( 'NONE',  ( -0.000000000000000000, -0.000000000000000000, 1.000000000000000000 ) ) ;
ENDSEC;
END-ISO-10303-21;
