ISO-10303-21;
HEADER;
FILE_DESCRIPTION (( 'STEP AP214' ),
    '1' );
FILE_NAME ('GLM5-025B-040-IR1.STEP',
    '2024-08-09T03:07:14',
    ( 'Windows User' ),
    ( 'P R C' ),
    'SwSTEP 2.0',
    'SolidWorks 2022',
    '' );
FILE_SCHEMA (( 'AUTOMOTIVE_DESIGN' ));
ENDSEC;

DATA;
#1 = PRODUCT_CONTEXT ( 'NONE', #66, 'mechanical' ) ;
#2 = EDGE_LOOP ( 'NONE', ( #192, #92, #95, #74 ) ) ;
#3 = CIRCLE ( 'NONE', #59, 12.51586243952469424 ) ;
#4 = CARTESIAN_POINT ( 'NONE',  ( 0.000000000000000000, 0.000000000000000000, 12.19999999999998863 ) ) ;
#5 = SPHERICAL_SURFACE ( 'NONE', #25, 146.9000000000000057 ) ;
#6 = DIRECTION ( 'NONE',  ( -1.000000000000000000, 0.000000000000000000, 0.000000000000000000 ) ) ;
#7 = VERTEX_POINT ( 'NONE', #260 ) ;
#8 = CARTESIAN_POINT ( 'NONE',  ( -12.69999999999999929, 0.000000000000000000, 12.19999999999998863 ) ) ;
#9 = ORIENTED_EDGE ( 'NONE', *, *, #278, .T. ) ;
#10 = CIRCLE ( 'NONE', #56, 12.51586243952469424 ) ;
#11 =( LENGTH_UNIT ( ) NAMED_UNIT ( * ) SI_UNIT ( .MILLI., .METRE. ) );
#12 = FILL_AREA_STYLE_COLOUR ( '', #61 ) ;
#13 = MECHANICAL_DESIGN_GEOMETRIC_PRESENTATION_REPRESENTATION (  '', ( #224 ), #113 ) ;
#14 = AXIS2_PLACEMENT_3D ( 'NONE', #267, #88, #26 ) ;
#15 = CARTESIAN_POINT ( 'NONE',  ( 0.000000000000000000, 0.000000000000000000, 12.38413756047529546 ) ) ;
#16 = DIRECTION ( 'NONE',  ( -0.000000000000000000, -0.000000000000000000, 1.000000000000000000 ) ) ;
#17 = CARTESIAN_POINT ( 'NONE',  ( -12.51586243952470490, 0.000000000000000000, 12.38413756047529546 ) ) ;
#18 = DIRECTION ( 'NONE',  ( 1.000000000000000000, 0.000000000000000000, 0.000000000000000000 ) ) ;
#19 = VERTEX_POINT ( 'NONE', #60 ) ;
#20 =( NAMED_UNIT ( * ) SI_UNIT ( $, .STERADIAN. ) SOLID_ANGLE_UNIT ( ) );
#21 = DIRECTION ( 'NONE',  ( 1.000000000000000000, 0.000000000000000000, 0.000000000000000000 ) ) ;
#22 = EDGE_CURVE ( 'NONE', #282, #179, #10, .T. ) ;
#23 = CLOSED_SHELL ( 'NONE', ( #128, #41, #218, #51, #77, #151, #100, #202 ) ) ;
#24 = EDGE_LOOP ( 'NONE', ( #182, #48, #42, #40 ) ) ;
#25 = AXIS2_PLACEMENT_3D ( 'NONE', #67, #153, #225 ) ;
#26 = DIRECTION ( 'NONE',  ( 1.000000000000000000, 0.000000000000000000, 0.000000000000000000 ) ) ;
#27 = EDGE_CURVE ( 'NONE', #136, #219, #271, .T. ) ;
#28 = FACE_OUTER_BOUND ( 'NONE', #138, .T. ) ;
#29 = ORIENTED_EDGE ( 'NONE', *, *, #176, .F. ) ;
#30 = DIRECTION ( 'NONE',  ( -0.000000000000000000, -0.000000000000000000, -1.000000000000000000 ) ) ;
#31 = EDGE_LOOP ( 'NONE', ( #87, #174, #81, #116 ) ) ;
#32 = DIRECTION ( 'NONE',  ( 1.000000000000000000, 0.000000000000000000, 0.000000000000000000 ) ) ;
#33 = CIRCLE ( 'NONE', #47, 146.9000000000000057 ) ;
#34 = EDGE_CURVE ( 'NONE', #219, #7, #94, .T. ) ;
#35 = DIRECTION ( 'NONE',  ( -1.000000000000000000, 1.224646799147353207E-16, 0.000000000000000000 ) ) ;
#36 = VECTOR ( 'NONE', #229, 1000.000000000000000 ) ;
#37 = CARTESIAN_POINT ( 'NONE',  ( -1.532751087513240349E-15, -12.51586243952461786, 12.38413756047530789 ) ) ;
#38 = ORIENTED_EDGE ( 'NONE', *, *, #22, .F. ) ;
#39 = FILL_AREA_STYLE_COLOUR ( '', #261 ) ;
#40 = ORIENTED_EDGE ( 'NONE', *, *, #27, .F. ) ;
#41 = ADVANCED_FACE ( 'NONE', ( #115 ), #117, .F. ) ;
#42 = ORIENTED_EDGE ( 'NONE', *, *, #34, .F. ) ;
#43 = ORIENTED_EDGE ( 'NONE', *, *, #89, .T. ) ;
#44 = EDGE_CURVE ( 'NONE', #19, #106, #93, .T. ) ;
#45 = DIRECTION ( 'NONE',  ( 0.000000000000000000, 0.000000000000000000, -1.000000000000000000 ) ) ;
#46 = CARTESIAN_POINT ( 'NONE',  ( 12.51586243952469424, 1.544026261215194124E-15, 12.38413756047529546 ) ) ;
#47 = AXIS2_PLACEMENT_3D ( 'NONE', #164, #162, #254 ) ;
#48 = ORIENTED_EDGE ( 'NONE', *, *, #165, .T. ) ;
#49 = DIRECTION ( 'NONE',  ( 1.000000000000000000, 0.000000000000000000, 0.000000000000000000 ) ) ;
#50 = CARTESIAN_POINT ( 'NONE',  ( 12.69999999999999929, 1.555301434917138433E-15, 20.00000000000000000 ) ) ;
#51 = ADVANCED_FACE ( 'NONE', ( #28 ), #249, .T. ) ;
#52 = ORIENTED_EDGE ( 'NONE', *, *, #187, .F. ) ;
#53 = VECTOR ( 'NONE', #208, 1000.000000000000000 ) ;
#54 = CARTESIAN_POINT ( 'NONE',  ( 0.000000000000000000, 0.000000000000000000, 12.38413756047529546 ) ) ;
#55 = CARTESIAN_POINT ( 'NONE',  ( 0.000000000000000000, 0.000000000000000000, 10.00000000000000000 ) ) ;
#56 = AXIS2_PLACEMENT_3D ( 'NONE', #190, #240, #214 ) ;
#57 = DIRECTION ( 'NONE',  ( -1.000000000000000000, 0.000000000000000000, 0.000000000000000000 ) ) ;
#58 = ORIENTED_EDGE ( 'NONE', *, *, #27, .T. ) ;
#59 = AXIS2_PLACEMENT_3D ( 'NONE', #256, #166, #143 ) ;
#60 = CARTESIAN_POINT ( 'NONE',  ( 12.69999999999999929, 1.555301434917138433E-15, 12.19999999999998863 ) ) ;
#61 = COLOUR_RGB ( '',1.000000000000000000, 1.000000000000000000, 1.000000000000000000 ) ;
#62 = LINE ( 'NONE', #107, #148 ) ;
#63 = UNCERTAINTY_MEASURE_WITH_UNIT (LENGTH_MEASURE( 1.000000000000000082E-05 ), #264, 'distance_accuracy_value', 'NONE');
#64 = SURFACE_SIDE_STYLE ('',( #132 ) ) ;
#65 = VERTEX_POINT ( 'NONE', #46 ) ;
#66 = APPLICATION_CONTEXT ( 'automotive_design' ) ;
#67 = CARTESIAN_POINT ( 'NONE',  ( 0.000000000000000000, 0.000000000000000000, 158.7499914588313175 ) ) ;
#68 = VERTEX_POINT ( 'NONE', #8 ) ;
#69 = FACE_OUTER_BOUND ( 'NONE', #231, .T. ) ;
#70 = DIRECTION ( 'NONE',  ( -0.000000000000000000, -0.000000000000000000, 1.000000000000000000 ) ) ;
#71 = AXIS2_PLACEMENT_3D ( 'NONE', #54, #140, #32 ) ;
#72 = ORIENTED_EDGE ( 'NONE', *, *, #89, .F. ) ;
#73 = CARTESIAN_POINT ( 'NONE',  ( 0.000000000000000000, 0.000000000000000000, 20.00000000000000000 ) ) ;
#74 = ORIENTED_EDGE ( 'NONE', *, *, #278, .F. ) ;
#75 = AXIS2_PLACEMENT_3D ( 'NONE', #135, #178, #269 ) ;
#76 = CIRCLE ( 'NONE', #262, 15.00000000000000000 ) ;
#77 = ADVANCED_FACE ( 'NONE', ( #180 ), #226, .T. ) ;
#78 = PRODUCT_DEFINITION_CONTEXT ( 'detailed design', #215, 'design' ) ;
#79 = CARTESIAN_POINT ( 'NONE',  ( 0.000000000000000000, 0.000000000000000000, 17.98185442112295362 ) ) ;
#80 = DIRECTION ( 'NONE',  ( 0.000000000000000000, 1.000000000000000000, 0.000000000000000000 ) ) ;
#81 = ORIENTED_EDGE ( 'NONE', *, *, #155, .T. ) ;
#82 = APPLICATION_PROTOCOL_DEFINITION ( 'draft international standard', 'automotive_design', 1998, #66 ) ;
#83 = ORIENTED_EDGE ( 'NONE', *, *, #187, .T. ) ;
#84 = AXIS2_PLACEMENT_3D ( 'NONE', #55, #222, #183 ) ;
#85 = EDGE_CURVE ( 'NONE', #145, #282, #109, .T. ) ;
#86 =( NAMED_UNIT ( * ) SI_UNIT ( $, .STERADIAN. ) SOLID_ANGLE_UNIT ( ) );
#87 = ORIENTED_EDGE ( 'NONE', *, *, #98, .F. ) ;
#88 = DIRECTION ( 'NONE',  ( 0.000000000000000000, 0.000000000000000000, -1.000000000000000000 ) ) ;
#89 = EDGE_CURVE ( 'NONE', #68, #19, #163, .T. ) ;
#90 = DIRECTION ( 'NONE',  ( -1.000000000000000000, 0.000000000000000000, 0.000000000000000000 ) ) ;
#91 = DIRECTION ( 'NONE',  ( -1.000000000000000000, 0.000000000000000000, 0.000000000000000000 ) ) ;
#92 = ORIENTED_EDGE ( 'NONE', *, *, #263, .T. ) ;
#93 = LINE ( 'NONE', #50, #36 ) ;
#94 = CIRCLE ( 'NONE', #181, 12.69999999999999751 ) ;
#95 = ORIENTED_EDGE ( 'NONE', *, *, #227, .F. ) ;
#96 = SURFACE_SIDE_STYLE ('',( #206 ) ) ;
#97 = PRESENTATION_LAYER_ASSIGNMENT (  '', '', ( #110 ) ) ;
#98 = EDGE_CURVE ( 'NONE', #228, #145, #238, .T. ) ;
#99 = PRESENTATION_LAYER_ASSIGNMENT (  '', '', ( #224 ) ) ;
#100 = ADVANCED_FACE ( 'NONE', ( #175 ), #5, .F. ) ;
#101 = AXIS2_PLACEMENT_3D ( 'NONE', #114, #45, #90 ) ;
#102 = SPHERICAL_SURFACE ( 'NONE', #194, 15.00000000000000000 ) ;
#103 = DIRECTION ( 'NONE',  ( 1.000000000000000000, 0.000000000000000000, 0.000000000000000000 ) ) ;
#104 = CARTESIAN_POINT ( 'NONE',  ( -12.69999999999999751, 0.000000000000000000, 10.00000000000000000 ) ) ;
#105 = SURFACE_STYLE_USAGE ( .BOTH. , #64 ) ;
#106 = VERTEX_POINT ( 'NONE', #245 ) ;
#107 = CARTESIAN_POINT ( 'NONE',  ( -12.69999999999999929, 0.000000000000000000, 20.00000000000000000 ) ) ;
#108 = APPLICATION_PROTOCOL_DEFINITION ( 'draft international standard', 'automotive_design', 1998, #215 ) ;
#109 = CIRCLE ( 'NONE', #75, 12.51586243952469424 ) ;
#110 = STYLED_ITEM ( 'NONE', ( #169 ), #152 ) ;
#111 = PRODUCT_DEFINITION_SHAPE ( 'NONE', 'NONE',  #244 ) ;
#112 = SPHERICAL_SURFACE ( 'NONE', #144, 15.00000000000000000 ) ;
#113 =( GEOMETRIC_REPRESENTATION_CONTEXT ( 3 ) GLOBAL_UNCERTAINTY_ASSIGNED_CONTEXT ( ( #149 ) ) GLOBAL_UNIT_ASSIGNED_CONTEXT ( ( #11, #184, #274 ) ) REPRESENTATION_CONTEXT ( 'NONE', 'WORKASPACE' ) );
#114 = CARTESIAN_POINT ( 'NONE',  ( 0.000000000000000000, 0.000000000000000000, 12.38413756047529546 ) ) ;
#115 = FACE_OUTER_BOUND ( 'NONE', #31, .T. ) ;
#116 = ORIENTED_EDGE ( 'NONE', *, *, #241, .T. ) ;
#117 = SPHERICAL_SURFACE ( 'NONE', #133, 146.9000000000000057 ) ;
#118 = ORIENTED_EDGE ( 'NONE', *, *, #141, .F. ) ;
#119 = CARTESIAN_POINT ( 'NONE',  ( 0.000000000000000000, 8.995030739737310516E-15, 11.84999145883131000 ) ) ;
#120 = FILL_AREA_STYLE ('',( #12 ) ) ;
#121 = CIRCLE ( 'NONE', #84, 12.69999999999999751 ) ;
#122 = DIRECTION ( 'NONE',  ( 0.7071067811865242581, 8.659560562354648129E-17, -0.7071067811865708874 ) ) ;
#123 = CIRCLE ( 'NONE', #139, 15.00000000000000000 ) ;
#124 = FACE_OUTER_BOUND ( 'NONE', #24, .T. ) ;
#125 = ORIENTED_EDGE ( 'NONE', *, *, #155, .F. ) ;
#126 = DIRECTION ( 'NONE',  ( 1.000000000000000000, -0.000000000000000000, 0.000000000000000000 ) ) ;
#127 = ORIENTED_EDGE ( 'NONE', *, *, #141, .T. ) ;
#128 = ADVANCED_FACE ( 'NONE', ( #69 ), #230, .T. ) ;
#129 = DIRECTION ( 'NONE',  ( -0.000000000000000000, -0.000000000000000000, 1.000000000000000000 ) ) ;
#130 = CARTESIAN_POINT ( 'NONE',  ( 0.000000000000000000, 0.000000000000000000, 0.000000000000000000 ) ) ;
#131 = ORIENTED_EDGE ( 'NONE', *, *, #34, .T. ) ;
#132 = SURFACE_STYLE_FILL_AREA ( #216 ) ;
#133 = AXIS2_PLACEMENT_3D ( 'NONE', #246, #204, #272 ) ;
#134 = CARTESIAN_POINT ( 'NONE',  ( 0.000000000000000000, 0.000000000000000000, 158.7499914588313175 ) ) ;
#135 = CARTESIAN_POINT ( 'NONE',  ( 0.000000000000000000, 0.000000000000000000, 12.38413756047529546 ) ) ;
#136 = VERTEX_POINT ( 'NONE', #157 ) ;
#137 = FACE_OUTER_BOUND ( 'NONE', #2, .T. ) ;
#138 = EDGE_LOOP ( 'NONE', ( #43, #247, #273, #58, #147 ) ) ;
#139 = AXIS2_PLACEMENT_3D ( 'NONE', #189, #35, #237 ) ;
#140 = DIRECTION ( 'NONE',  ( -0.000000000000000000, -0.000000000000000000, 1.000000000000000000 ) ) ;
#141 = EDGE_CURVE ( 'NONE', #19, #68, #265, .T. ) ;
#142 = LINE ( 'NONE', #17, #53 ) ;
#143 = DIRECTION ( 'NONE',  ( 1.000000000000000000, 0.000000000000000000, 0.000000000000000000 ) ) ;
#144 = AXIS2_PLACEMENT_3D ( 'NONE', #199, #188, #210 ) ;
#145 = VERTEX_POINT ( 'NONE', #268 ) ;
#146 =( GEOMETRIC_REPRESENTATION_CONTEXT ( 3 ) GLOBAL_UNCERTAINTY_ASSIGNED_CONTEXT ( ( #63 ) ) GLOBAL_UNIT_ASSIGNED_CONTEXT ( ( #264, #220, #86 ) ) REPRESENTATION_CONTEXT ( 'NONE', 'WORKASPACE' ) );
#147 = ORIENTED_EDGE ( 'NONE', *, *, #255, .F. ) ;
#148 = VECTOR ( 'NONE', #281, 1000.000000000000000 ) ;
#149 = UNCERTAINTY_MEASURE_WITH_UNIT (LENGTH_MEASURE( 1.000000000000000082E-05 ), #11, 'distance_accuracy_value', 'NONE');
#150 = DIRECTION ( 'NONE',  ( 0.000000000000000000, 0.000000000000000000, 1.000000000000000000 ) ) ;
#151 = ADVANCED_FACE ( 'NONE', ( #137 ), #112, .T. ) ;
#152 = ADVANCED_BREP_SHAPE_REPRESENTATION ( 'GLM5-025B-040-IR1', ( #234, #171 ), #253 ) ;
#153 = DIRECTION ( 'NONE',  ( -1.000000000000000000, 0.000000000000000000, 0.000000000000000000 ) ) ;
#154 = DIRECTION ( 'NONE',  ( -0.000000000000000000, -0.000000000000000000, -1.000000000000000000 ) ) ;
#155 = EDGE_CURVE ( 'NONE', #179, #65, #3, .T. ) ;
#156 = ORIENTED_EDGE ( 'NONE', *, *, #255, .T. ) ;
#157 = CARTESIAN_POINT ( 'NONE',  ( 0.000000000000000000, 12.69999999999999751, 10.00000000000000178 ) ) ;
#158 = DIRECTION ( 'NONE',  ( 1.000000000000000000, 0.000000000000000000, 0.000000000000000000 ) ) ;
#159 = CIRCLE ( 'NONE', #186, 12.69999999999999751 ) ;
#160 = EDGE_LOOP ( 'NONE', ( #197, #250, #270, #259 ) ) ;
#161 = CARTESIAN_POINT ( 'NONE',  ( 0.000000000000000000, 0.000000000000000000, 10.00000000000000000 ) ) ;
#162 = DIRECTION ( 'NONE',  ( -1.000000000000000000, 1.224646799147353207E-16, 0.000000000000000000 ) ) ;
#163 = CIRCLE ( 'NONE', #14, 12.69999999999999929 ) ;
#164 = CARTESIAN_POINT ( 'NONE',  ( 0.000000000000000000, 0.000000000000000000, 158.7499914588313175 ) ) ;
#165 = EDGE_CURVE ( 'NONE', #239, #7, #123, .T. ) ;
#166 = DIRECTION ( 'NONE',  ( -0.000000000000000000, -0.000000000000000000, 1.000000000000000000 ) ) ;
#167 = FACE_OUTER_BOUND ( 'NONE', #168, .T. ) ;
#168 = EDGE_LOOP ( 'NONE', ( #29, #125, #38, #83, #118 ) ) ;
#169 = PRESENTATION_STYLE_ASSIGNMENT (( #105 ) ) ;
#170 = EDGE_LOOP ( 'NONE', ( #203, #127, #156, #131, #9 ) ) ;
#171 = AXIS2_PLACEMENT_3D ( 'NONE', #130, #150, #21 ) ;
#172 = CARTESIAN_POINT ( 'NONE',  ( 0.000000000000000000, 0.000000000000000000, 17.98185442112295362 ) ) ;
#173 = VECTOR ( 'NONE', #122, 1000.000000000000000 ) ;
#174 = ORIENTED_EDGE ( 'NONE', *, *, #235, .T. ) ;
#175 = FACE_OUTER_BOUND ( 'NONE', #160, .T. ) ;
#176 = EDGE_CURVE ( 'NONE', #65, #19, #236, .T. ) ;
#177 = DIRECTION ( 'NONE',  ( 1.000000000000000000, 0.000000000000000000, 0.000000000000000000 ) ) ;
#178 = DIRECTION ( 'NONE',  ( -0.000000000000000000, -0.000000000000000000, 1.000000000000000000 ) ) ;
#179 = VERTEX_POINT ( 'NONE', #37 ) ;
#180 = FACE_OUTER_BOUND ( 'NONE', #170, .T. ) ;
#181 = AXIS2_PLACEMENT_3D ( 'NONE', #161, #70, #158 ) ;
#182 = ORIENTED_EDGE ( 'NONE', *, *, #263, .F. ) ;
#183 = DIRECTION ( 'NONE',  ( 1.000000000000000000, 0.000000000000000000, 0.000000000000000000 ) ) ;
#184 =( NAMED_UNIT ( * ) PLANE_ANGLE_UNIT ( ) SI_UNIT ( $, .RADIAN. ) );
#185 = AXIS2_PLACEMENT_3D ( 'NONE', #134, #49, #200 ) ;
#186 = AXIS2_PLACEMENT_3D ( 'NONE', #242, #129, #18 ) ;
#187 = EDGE_CURVE ( 'NONE', #282, #68, #142, .T. ) ;
#188 = DIRECTION ( 'NONE',  ( -1.000000000000000000, 0.000000000000000000, 0.000000000000000000 ) ) ;
#189 = CARTESIAN_POINT ( 'NONE',  ( 0.000000000000000000, 0.000000000000000000, 17.98185442112295362 ) ) ;
#190 = CARTESIAN_POINT ( 'NONE',  ( 0.000000000000000000, 0.000000000000000000, 12.38413756047529546 ) ) ;
#191 = CARTESIAN_POINT ( 'NONE',  ( 12.51586243952470490, 1.532751087513251393E-15, 12.38413756047529546 ) ) ;
#192 = ORIENTED_EDGE ( 'NONE', *, *, #165, .F. ) ;
#193 = SHAPE_DEFINITION_REPRESENTATION ( #111, #152 ) ;
#194 = AXIS2_PLACEMENT_3D ( 'NONE', #79, #279, #80 ) ;
#195 =( LENGTH_UNIT ( ) NAMED_UNIT ( * ) SI_UNIT ( .MILLI., .METRE. ) );
#196 = AXIS2_PLACEMENT_3D ( 'NONE', #4, #248, #177 ) ;
#197 = ORIENTED_EDGE ( 'NONE', *, *, #235, .F. ) ;
#198 = AXIS2_PLACEMENT_3D ( 'NONE', #15, #258, #57 ) ;
#199 = CARTESIAN_POINT ( 'NONE',  ( 0.000000000000000000, 0.000000000000000000, 17.98185442112295362 ) ) ;
#200 = DIRECTION ( 'NONE',  ( 0.000000000000000000, 0.000000000000000000, -1.000000000000000000 ) ) ;
#201 = CARTESIAN_POINT ( 'NONE',  ( 0.000000000000000000, 0.000000000000000000, 20.00000000000000000 ) ) ;
#202 = ADVANCED_FACE ( 'NONE', ( #167 ), #277, .T. ) ;
#203 = ORIENTED_EDGE ( 'NONE', *, *, #44, .F. ) ;
#204 = DIRECTION ( 'NONE',  ( -1.000000000000000000, 0.000000000000000000, 0.000000000000000000 ) ) ;
#205 = ORIENTED_EDGE ( 'NONE', *, *, #241, .F. ) ;
#206 = SURFACE_STYLE_FILL_AREA ( #120 ) ;
#207 = CIRCLE ( 'NONE', #71, 12.51586243952469424 ) ;
#208 = DIRECTION ( 'NONE',  ( -0.7071067811865242581, 0.000000000000000000, -0.7071067811865708874 ) ) ;
#209 = CARTESIAN_POINT ( 'NONE',  ( 0.000000000000000000, 0.000000000000000000, 10.00000000000000000 ) ) ;
#210 = DIRECTION ( 'NONE',  ( 0.000000000000000000, 1.000000000000000000, 0.000000000000000000 ) ) ;
#211 = ORIENTED_EDGE ( 'NONE', *, *, #85, .F. ) ;
#212 = CARTESIAN_POINT ( 'NONE',  ( -12.51586243952469424, 0.000000000000000000, 12.38413756047529546 ) ) ;
#213 = PRODUCT_RELATED_PRODUCT_CATEGORY ( 'part', '', ( #266 ) ) ;
#214 = DIRECTION ( 'NONE',  ( 1.000000000000000000, 0.000000000000000000, 0.000000000000000000 ) ) ;
#215 = APPLICATION_CONTEXT ( 'automotive_design' ) ;
#216 = FILL_AREA_STYLE ('',( #39 ) ) ;
#217 =( NAMED_UNIT ( * ) PLANE_ANGLE_UNIT ( ) SI_UNIT ( $, .RADIAN. ) );
#218 = ADVANCED_FACE ( 'NONE', ( #124 ), #102, .T. ) ;
#219 = VERTEX_POINT ( 'NONE', #104 ) ;
#220 =( NAMED_UNIT ( * ) PLANE_ANGLE_UNIT ( ) SI_UNIT ( $, .RADIAN. ) );
#221 = AXIS2_PLACEMENT_3D ( 'NONE', #73, #154, #91 ) ;
#222 = DIRECTION ( 'NONE',  ( -0.000000000000000000, -0.000000000000000000, 1.000000000000000000 ) ) ;
#223 = PRODUCT_DEFINITION_FORMATION_WITH_SPECIFIED_SOURCE ( 'ÈÎºÎ', '', #266, .NOT_KNOWN. ) ;
#224 = STYLED_ITEM ( 'NONE', ( #252 ), #234 ) ;
#225 = DIRECTION ( 'NONE',  ( 0.000000000000000000, 1.000000000000000000, 0.000000000000000000 ) ) ;
#226 = CYLINDRICAL_SURFACE ( 'NONE', #221, 12.69999999999999929 ) ;
#227 = EDGE_CURVE ( 'NONE', #106, #136, #121, .T. ) ;
#228 = VERTEX_POINT ( 'NONE', #119 ) ;
#229 = DIRECTION ( 'NONE',  ( -0.000000000000000000, -0.000000000000000000, -1.000000000000000000 ) ) ;
#230 = CONICAL_SURFACE ( 'NONE', #101, 12.51586243952470490, 0.7853981633974153054 ) ;
#231 = EDGE_LOOP ( 'NONE', ( #205, #280, #72, #52, #211 ) ) ;
#232 = UNCERTAINTY_MEASURE_WITH_UNIT (LENGTH_MEASURE( 1.000000000000000082E-05 ), #195, 'distance_accuracy_value', 'NONE');
#233 = CARTESIAN_POINT ( 'NONE',  ( 0.000000000000000000, 9.184850993605147944E-16, 2.981854421122954957 ) ) ;
#234 = MANIFOLD_SOLID_BREP ( 'µ¹½Ç1', #23 ) ;
#235 = EDGE_CURVE ( 'NONE', #228, #179, #33, .T. ) ;
#236 = LINE ( 'NONE', #191, #173 ) ;
#237 = DIRECTION ( 'NONE',  ( -1.224646799147352961E-16, -1.000000000000000000, 0.000000000000000000 ) ) ;
#238 = CIRCLE ( 'NONE', #185, 146.9000000000000057 ) ;
#239 = VERTEX_POINT ( 'NONE', #233 ) ;
#240 = DIRECTION ( 'NONE',  ( -0.000000000000000000, -0.000000000000000000, 1.000000000000000000 ) ) ;
#241 = EDGE_CURVE ( 'NONE', #65, #145, #207, .T. ) ;
#242 = CARTESIAN_POINT ( 'NONE',  ( 0.000000000000000000, 0.000000000000000000, 10.00000000000000000 ) ) ;
#243 = DIRECTION ( 'NONE',  ( 0.000000000000000000, 0.000000000000000000, -1.000000000000000000 ) ) ;
#244 = PRODUCT_DEFINITION ( 'Î´Öª', '', #223, #78 ) ;
#245 = CARTESIAN_POINT ( 'NONE',  ( 12.69999999999999751, 1.555301434917138235E-15, 10.00000000000000000 ) ) ;
#246 = CARTESIAN_POINT ( 'NONE',  ( 0.000000000000000000, 0.000000000000000000, 158.7499914588313175 ) ) ;
#247 = ORIENTED_EDGE ( 'NONE', *, *, #44, .T. ) ;
#248 = DIRECTION ( 'NONE',  ( 0.000000000000000000, 0.000000000000000000, -1.000000000000000000 ) ) ;
#249 = CYLINDRICAL_SURFACE ( 'NONE', #251, 12.69999999999999929 ) ;
#250 = ORIENTED_EDGE ( 'NONE', *, *, #98, .T. ) ;
#251 = AXIS2_PLACEMENT_3D ( 'NONE', #201, #30, #6 ) ;
#252 = PRESENTATION_STYLE_ASSIGNMENT (( #275 ) ) ;
#253 =( GEOMETRIC_REPRESENTATION_CONTEXT ( 3 ) GLOBAL_UNCERTAINTY_ASSIGNED_CONTEXT ( ( #232 ) ) GLOBAL_UNIT_ASSIGNED_CONTEXT ( ( #195, #217, #20 ) ) REPRESENTATION_CONTEXT ( 'NONE', 'WORKASPACE' ) );
#254 = DIRECTION ( 'NONE',  ( -1.224646799147353207E-16, -1.000000000000000000, 0.000000000000000000 ) ) ;
#255 = EDGE_CURVE ( 'NONE', #68, #219, #62, .T. ) ;
#256 = CARTESIAN_POINT ( 'NONE',  ( 0.000000000000000000, 0.000000000000000000, 12.38413756047529546 ) ) ;
#257 = AXIS2_PLACEMENT_3D ( 'NONE', #209, #16, #103 ) ;
#258 = DIRECTION ( 'NONE',  ( 0.000000000000000000, 0.000000000000000000, -1.000000000000000000 ) ) ;
#259 = ORIENTED_EDGE ( 'NONE', *, *, #22, .T. ) ;
#260 = CARTESIAN_POINT ( 'NONE',  ( -1.555301434917138038E-15, -12.69999999999999751, 10.00000000000000178 ) ) ;
#261 = COLOUR_RGB ( '',1.000000000000000000, 1.000000000000000000, 1.000000000000000000 ) ;
#262 = AXIS2_PLACEMENT_3D ( 'NONE', #172, #126, #243 ) ;
#263 = EDGE_CURVE ( 'NONE', #239, #136, #76, .T. ) ;
#264 =( LENGTH_UNIT ( ) NAMED_UNIT ( * ) SI_UNIT ( .MILLI., .METRE. ) );
#265 = CIRCLE ( 'NONE', #196, 12.69999999999999929 ) ;
#266 = PRODUCT ( 'GLM5-025B-040-IR1', 'GLM5-025B-040-IR1', '', ( #1 ) ) ;
#267 = CARTESIAN_POINT ( 'NONE',  ( 0.000000000000000000, 0.000000000000000000, 12.19999999999998863 ) ) ;
#268 = CARTESIAN_POINT ( 'NONE',  ( 0.000000000000000000, 12.51586243952461786, 12.38413756047530789 ) ) ;
#269 = DIRECTION ( 'NONE',  ( 1.000000000000000000, 0.000000000000000000, 0.000000000000000000 ) ) ;
#270 = ORIENTED_EDGE ( 'NONE', *, *, #85, .T. ) ;
#271 = CIRCLE ( 'NONE', #257, 12.69999999999999751 ) ;
#272 = DIRECTION ( 'NONE',  ( 0.000000000000000000, 1.000000000000000000, 0.000000000000000000 ) ) ;
#273 = ORIENTED_EDGE ( 'NONE', *, *, #227, .T. ) ;
#274 =( NAMED_UNIT ( * ) SI_UNIT ( $, .STERADIAN. ) SOLID_ANGLE_UNIT ( ) );
#275 = SURFACE_STYLE_USAGE ( .BOTH. , #96 ) ;
#276 = MECHANICAL_DESIGN_GEOMETRIC_PRESENTATION_REPRESENTATION (  '', ( #110 ), #146 ) ;
#277 = CONICAL_SURFACE ( 'NONE', #198, 12.51586243952470490, 0.7853981633974153054 ) ;
#278 = EDGE_CURVE ( 'NONE', #7, #106, #159, .T. ) ;
#279 = DIRECTION ( 'NONE',  ( -1.000000000000000000, 0.000000000000000000, 0.000000000000000000 ) ) ;
#280 = ORIENTED_EDGE ( 'NONE', *, *, #176, .T. ) ;
#281 = DIRECTION ( 'NONE',  ( -0.000000000000000000, -0.000000000000000000, -1.000000000000000000 ) ) ;
#282 = VERTEX_POINT ( 'NONE', #212 ) ;
ENDSEC;
END-ISO-10303-21;
