ISO-10303-21;
HEADER;
FILE_DESCRIPTION (( 'STEP AP214' ),
    '1' );
FILE_NAME ('GLM5-025B-500.STEP',
    '2024-08-09T03:24:57',
    ( 'Windows User' ),
    ( 'P R C' ),
    'SwSTEP 2.0',
    'SolidWorks 2022',
    '' );
FILE_SCHEMA (( 'AUTOMOTIVE_DESIGN' ));
ENDSEC;

DATA;
#1 = CONICAL_SURFACE ( 'NONE', #190, 12.50763511949362794, 0.7853981633973986520 ) ;
#2 = SURFACE_STYLE_FILL_AREA ( #267 ) ;
#3 = VECTOR ( 'NONE', #33, 1000.000000000000000 ) ;
#4 = EDGE_CURVE ( 'NONE', #236, #164, #15, .T. ) ;
#5 = LINE ( 'NONE', #31, #22 ) ;
#6 = CARTESIAN_POINT ( 'NONE',  ( -12.69999999999999929, 0.000000000000000000, 10.22390766693323449 ) ) ;
#7 = CARTESIAN_POINT ( 'NONE',  ( 0.000000000000000000, 0.000000000000000000, 9.979855148039979085 ) ) ;
#8 = AXIS2_PLACEMENT_3D ( 'NONE', #127, #241, #310 ) ;
#9 = AXIS2_PLACEMENT_3D ( 'NONE', #216, #312, #75 ) ;
#10 = CARTESIAN_POINT ( 'NONE',  ( 0.000000000000000000, 0.000000000000000000, 20.00000000000000000 ) ) ;
#11 =( NAMED_UNIT ( * ) SI_UNIT ( $, .STERADIAN. ) SOLID_ANGLE_UNIT ( ) );
#12 = ORIENTED_EDGE ( 'NONE', *, *, #170, .F. ) ;
#13 =( LENGTH_UNIT ( ) NAMED_UNIT ( * ) SI_UNIT ( .MILLI., .METRE. ) );
#14 = ORIENTED_EDGE ( 'NONE', *, *, #108, .F. ) ;
#15 = CIRCLE ( 'NONE', #297, 12.69999999999999929 ) ;
#16 = EDGE_CURVE ( 'NONE', #124, #195, #205, .T. ) ;
#17 = VERTEX_POINT ( 'NONE', #174 ) ;
#18 = DIRECTION ( 'NONE',  ( 1.000000000000000000, 0.000000000000000000, 0.000000000000000000 ) ) ;
#19 = EDGE_LOOP ( 'NONE', ( #57, #107, #276, #302, #147 ) ) ;
#20 = CARTESIAN_POINT ( 'NONE',  ( -12.50763511949364570, 0.000000000000000000, 13.59236488050630243 ) ) ;
#21 = AXIS2_PLACEMENT_3D ( 'NONE', #154, #328, #149 ) ;
#22 = VECTOR ( 'NONE', #55, 1000.000000000000114 ) ;
#23 = LINE ( 'NONE', #306, #242 ) ;
#24 = DIRECTION ( 'NONE',  ( 0.000000000000000000, 0.000000000000000000, -1.000000000000000000 ) ) ;
#25 = EDGE_CURVE ( 'NONE', #163, #88, #274, .T. ) ;
#26 = LINE ( 'NONE', #207, #285 ) ;
#27 = AXIS2_PLACEMENT_3D ( 'NONE', #7, #268, #73 ) ;
#28 = CARTESIAN_POINT ( 'NONE',  ( 12.69999999999999929, 1.555301434917138433E-15, 10.22390766693323449 ) ) ;
#29 = FACE_OUTER_BOUND ( 'NONE', #61, .T. ) ;
#30 = EDGE_CURVE ( 'NONE', #88, #40, #264, .T. ) ;
#31 = CARTESIAN_POINT ( 'NONE',  ( -12.50763511949362794, 0.000000000000000000, 13.59236488050635749 ) ) ;
#32 = FILL_AREA_STYLE_COLOUR ( '', #46 ) ;
#33 = DIRECTION ( 'NONE',  ( -0.000000000000000000, -0.000000000000000000, -1.000000000000000000 ) ) ;
#34 = PRESENTATION_STYLE_ASSIGNMENT (( #128 ) ) ;
#35 = CIRCLE ( 'NONE', #150, 12.69999999999999929 ) ;
#36 = CIRCLE ( 'NONE', #9, 125.0000000000000000 ) ;
#37 = SURFACE_SIDE_STYLE ('',( #196 ) ) ;
#38 = ORIENTED_EDGE ( 'NONE', *, *, #108, .T. ) ;
#39 = ORIENTED_EDGE ( 'NONE', *, *, #78, .F. ) ;
#40 = VERTEX_POINT ( 'NONE', #20 ) ;
#41 = FACE_OUTER_BOUND ( 'NONE', #323, .T. ) ;
#42 = ORIENTED_EDGE ( 'NONE', *, *, #173, .F. ) ;
#43 = ORIENTED_EDGE ( 'NONE', *, *, #78, .T. ) ;
#44 = CARTESIAN_POINT ( 'NONE',  ( 0.000000000000000000, 12.50763511949312701, 13.59236488050630243 ) ) ;
#45 = AXIS2_PLACEMENT_3D ( 'NONE', #260, #331, #177 ) ;
#46 = COLOUR_RGB ( '',1.000000000000000000, 1.000000000000000000, 1.000000000000000000 ) ;
#47 = DIRECTION ( 'NONE',  ( -1.000000000000000000, 0.000000000000000000, 0.000000000000000000 ) ) ;
#48 = DIRECTION ( 'NONE',  ( -0.000000000000000000, -0.000000000000000000, -1.000000000000000000 ) ) ;
#49 = CARTESIAN_POINT ( 'NONE',  ( 12.50763511949364570, 1.543522483158114931E-15, 13.59236488050630243 ) ) ;
#50 = DIRECTION ( 'NONE',  ( 1.000000000000000000, 0.000000000000000000, 0.000000000000000000 ) ) ;
#51 = DIRECTION ( 'NONE',  ( 0.000000000000000000, 0.000000000000000000, -1.000000000000000000 ) ) ;
#52 = CYLINDRICAL_SURFACE ( 'NONE', #136, 12.69999999999999929 ) ;
#53 = DIRECTION ( 'NONE',  ( -0.000000000000000000, -0.000000000000000000, -1.000000000000000000 ) ) ;
#54 = CARTESIAN_POINT ( 'NONE',  ( 0.000000000000000000, 0.000000000000000000, 9.979855148039979085 ) ) ;
#55 = DIRECTION ( 'NONE',  ( -0.7071067811865124897, 0.000000000000000000, -0.7071067811865825448 ) ) ;
#56 =( GEOMETRIC_REPRESENTATION_CONTEXT ( 3 ) GLOBAL_UNCERTAINTY_ASSIGNED_CONTEXT ( ( #99 ) ) GLOBAL_UNIT_ASSIGNED_CONTEXT ( ( #228, #106, #273 ) ) REPRESENTATION_CONTEXT ( 'NONE', 'WORKASPACE' ) );
#57 = ORIENTED_EDGE ( 'NONE', *, *, #277, .F. ) ;
#58 = ORIENTED_EDGE ( 'NONE', *, *, #148, .T. ) ;
#59 = ADVANCED_BREP_SHAPE_REPRESENTATION ( 'GLM5-025B-500', ( #221, #319 ), #56 ) ;
#60 = ORIENTED_EDGE ( 'NONE', *, *, #30, .T. ) ;
#61 = EDGE_LOOP ( 'NONE', ( #43, #168, #220, #83 ) ) ;
#62 = CONICAL_SURFACE ( 'NONE', #259, 12.69999999999999929, 0.6836225510729435628 ) ;
#63 = ORIENTED_EDGE ( 'NONE', *, *, #225, .F. ) ;
#64 = DIRECTION ( 'NONE',  ( -0.000000000000000000, -0.000000000000000000, 1.000000000000000000 ) ) ;
#65 = CARTESIAN_POINT ( 'NONE',  ( 0.000000000000000000, 0.000000000000000000, 13.59236488050630243 ) ) ;
#66 = APPLICATION_CONTEXT ( 'automotive_design' ) ;
#67 = FACE_OUTER_BOUND ( 'NONE', #229, .T. ) ;
#68 = DIRECTION ( 'NONE',  ( 1.000000000000000000, 0.000000000000000000, 0.000000000000000000 ) ) ;
#69 = ADVANCED_FACE ( 'NONE', ( #67 ), #93, .F. ) ;
#70 = DIRECTION ( 'NONE',  ( -0.000000000000000000, -0.000000000000000000, 1.000000000000000000 ) ) ;
#71 = EDGE_CURVE ( 'NONE', #197, #164, #178, .T. ) ;
#72 =( NAMED_UNIT ( * ) SI_UNIT ( $, .STERADIAN. ) SOLID_ANGLE_UNIT ( ) );
#73 = DIRECTION ( 'NONE',  ( 1.000000000000000000, 0.000000000000000000, 0.000000000000000000 ) ) ;
#74 = DIRECTION ( 'NONE',  ( -1.000000000000000000, 0.000000000000000000, 0.000000000000000000 ) ) ;
#75 = DIRECTION ( 'NONE',  ( -1.224646799147353207E-16, -1.000000000000000000, 0.000000000000000000 ) ) ;
#76 = DIRECTION ( 'NONE',  ( 1.000000000000000000, -0.000000000000000000, 0.000000000000000000 ) ) ;
#77 = EDGE_LOOP ( 'NONE', ( #139, #12, #14, #85, #96 ) ) ;
#78 = EDGE_CURVE ( 'NONE', #223, #308, #35, .T. ) ;
#79 = DIRECTION ( 'NONE',  ( 0.000000000000000000, 0.000000000000000000, -1.000000000000000000 ) ) ;
#80 = ADVANCED_FACE ( 'NONE', ( #289 ), #165, .T. ) ;
#81 = AXIS2_PLACEMENT_3D ( 'NONE', #184, #76, #269 ) ;
#82 = ORIENTED_EDGE ( 'NONE', *, *, #134, .T. ) ;
#83 = ORIENTED_EDGE ( 'NONE', *, *, #134, .F. ) ;
#84 = CARTESIAN_POINT ( 'NONE',  ( 0.000000000000000000, 0.000000000000000000, 10.22390766693323449 ) ) ;
#85 = ORIENTED_EDGE ( 'NONE', *, *, #211, .T. ) ;
#86 = PRODUCT_DEFINITION_CONTEXT ( 'detailed design', #293, 'design' ) ;
#87 = DIRECTION ( 'NONE',  ( 1.000000000000000000, 0.000000000000000000, 0.000000000000000000 ) ) ;
#88 = VERTEX_POINT ( 'NONE', #44 ) ;
#89 = AXIS2_PLACEMENT_3D ( 'NONE', #152, #202, #123 ) ;
#90 = CIRCLE ( 'NONE', #27, 12.50117762165416302 ) ;
#91 = ORIENTED_EDGE ( 'NONE', *, *, #240, .F. ) ;
#92 = ADVANCED_FACE ( 'NONE', ( #155 ), #1, .T. ) ;
#93 = SPHERICAL_SURFACE ( 'NONE', #103, 317.8000000000000114 ) ;
#94 = CARTESIAN_POINT ( 'NONE',  ( 0.000000000000000000, 1.945963763845144281E-14, 13.34613837992110241 ) ) ;
#95 = AXIS2_PLACEMENT_3D ( 'NONE', #218, #294, #311 ) ;
#96 = ORIENTED_EDGE ( 'NONE', *, *, #126, .F. ) ;
#97 = ADVANCED_FACE ( 'NONE', ( #238 ), #198, .T. ) ;
#98 = DIRECTION ( 'NONE',  ( -1.000000000000000000, 1.224646799147353207E-16, 0.000000000000000000 ) ) ;
#99 = UNCERTAINTY_MEASURE_WITH_UNIT (LENGTH_MEASURE( 1.000000000000000082E-05 ), #228, 'distance_accuracy_value', 'NONE');
#100 = FACE_OUTER_BOUND ( 'NONE', #141, .T. ) ;
#101 = CIRCLE ( 'NONE', #81, 125.0000000000000000 ) ;
#102 = CARTESIAN_POINT ( 'NONE',  ( -12.69999999999999929, 0.000000000000000000, 13.39999999999996660 ) ) ;
#103 = AXIS2_PLACEMENT_3D ( 'NONE', #234, #262, #203 ) ;
#104 = AXIS2_PLACEMENT_3D ( 'NONE', #10, #230, #226 ) ;
#105 = DIRECTION ( 'NONE',  ( 0.000000000000000000, 0.000000000000000000, -1.000000000000000000 ) ) ;
#106 =( NAMED_UNIT ( * ) PLANE_ANGLE_UNIT ( ) SI_UNIT ( $, .RADIAN. ) );
#107 = ORIENTED_EDGE ( 'NONE', *, *, #208, .F. ) ;
#108 = EDGE_CURVE ( 'NONE', #40, #195, #135, .T. ) ;
#109 = CARTESIAN_POINT ( 'NONE',  ( 0.000000000000000000, 0.000000000000000000, 134.3531664253065969 ) ) ;
#110 = ORIENTED_EDGE ( 'NONE', *, *, #16, .T. ) ;
#111 = LINE ( 'NONE', #138, #298 ) ;
#112 = AXIS2_PLACEMENT_3D ( 'NONE', #187, #181, #214 ) ;
#113 = ORIENTED_EDGE ( 'NONE', *, *, #4, .T. ) ;
#114 =( NAMED_UNIT ( * ) PLANE_ANGLE_UNIT ( ) SI_UNIT ( $, .RADIAN. ) );
#115 = ORIENTED_EDGE ( 'NONE', *, *, #71, .F. ) ;
#116 = FACE_OUTER_BOUND ( 'NONE', #188, .T. ) ;
#117 = ORIENTED_EDGE ( 'NONE', *, *, #16, .F. ) ;
#118 = DIRECTION ( 'NONE',  ( -1.224646799147353207E-16, -1.000000000000000000, 0.000000000000000000 ) ) ;
#119 = AXIS2_PLACEMENT_3D ( 'NONE', #65, #235, #68 ) ;
#120 = APPLICATION_PROTOCOL_DEFINITION ( 'draft international standard', 'automotive_design', 1998, #293 ) ;
#121 = CARTESIAN_POINT ( 'NONE',  ( 0.000000000000000000, 0.000000000000000000, 13.59236488050630243 ) ) ;
#122 = EDGE_CURVE ( 'NONE', #197, #145, #159, .T. ) ;
#123 = DIRECTION ( 'NONE',  ( 1.000000000000000000, 0.000000000000000000, 0.000000000000000000 ) ) ;
#124 = VERTEX_POINT ( 'NONE', #94 ) ;
#125 = AXIS2_PLACEMENT_3D ( 'NONE', #121, #70, #209 ) ;
#126 = EDGE_CURVE ( 'NONE', #308, #223, #210, .T. ) ;
#127 = CARTESIAN_POINT ( 'NONE',  ( 0.000000000000000000, 0.000000000000000000, 13.59236488050630243 ) ) ;
#128 = SURFACE_STYLE_USAGE ( .BOTH. , #158 ) ;
#129 = FACE_OUTER_BOUND ( 'NONE', #325, .T. ) ;
#130 = CIRCLE ( 'NONE', #8, 12.50763511949364570 ) ;
#131 =( NAMED_UNIT ( * ) PLANE_ANGLE_UNIT ( ) SI_UNIT ( $, .RADIAN. ) );
#132 = CARTESIAN_POINT ( 'NONE',  ( 0.000000000000000000, 0.000000000000000000, 134.3531664253065969 ) ) ;
#133 = PRODUCT_RELATED_PRODUCT_CATEGORY ( 'part', '', ( #246 ) ) ;
#134 = EDGE_CURVE ( 'NONE', #223, #236, #23, .T. ) ;
#135 = CIRCLE ( 'NONE', #119, 12.50763511949364570 ) ;
#136 = AXIS2_PLACEMENT_3D ( 'NONE', #271, #53, #182 ) ;
#137 = FILL_AREA_STYLE_COLOUR ( '', #290 ) ;
#138 = CARTESIAN_POINT ( 'NONE',  ( -12.69999999999999929, 1.555301434917138433E-15, 10.22390766693323449 ) ) ;
#139 = ORIENTED_EDGE ( 'NONE', *, *, #148, .F. ) ;
#140 = APPLICATION_PROTOCOL_DEFINITION ( 'draft international standard', 'automotive_design', 1998, #66 ) ;
#141 = EDGE_LOOP ( 'NONE', ( #299, #193, #251, #317 ) ) ;
#142 = FACE_OUTER_BOUND ( 'NONE', #143, .T. ) ;
#143 = EDGE_LOOP ( 'NONE', ( #63, #282, #82, #113 ) ) ;
#144 = UNCERTAINTY_MEASURE_WITH_UNIT (LENGTH_MEASURE( 1.000000000000000082E-05 ), #13, 'distance_accuracy_value', 'NONE');
#145 = VERTEX_POINT ( 'NONE', #153 ) ;
#146 = PRODUCT_CONTEXT ( 'NONE', #66, 'mechanical' ) ;
#147 = ORIENTED_EDGE ( 'NONE', *, *, #4, .F. ) ;
#148 = EDGE_CURVE ( 'NONE', #163, #308, #26, .T. ) ;
#149 = DIRECTION ( 'NONE',  ( 1.000000000000000000, 0.000000000000000000, 0.000000000000000000 ) ) ;
#150 = AXIS2_PLACEMENT_3D ( 'NONE', #263, #284, #332 ) ;
#151 = AXIS2_PLACEMENT_3D ( 'NONE', #132, #74, #156 ) ;
#152 = CARTESIAN_POINT ( 'NONE',  ( 0.000000000000000000, 0.000000000000000000, 13.59236488050630243 ) ) ;
#153 = CARTESIAN_POINT ( 'NONE',  ( -1.530952715993126243E-15, -12.50117762165413815, 9.979855148039979085 ) ) ;
#154 = CARTESIAN_POINT ( 'NONE',  ( 0.000000000000000000, 0.000000000000000000, 10.22390766693323449 ) ) ;
#155 = FACE_OUTER_BOUND ( 'NONE', #171, .T. ) ;
#156 = DIRECTION ( 'NONE',  ( 0.000000000000000000, 1.000000000000000000, 0.000000000000000000 ) ) ;
#157 = DIRECTION ( 'NONE',  ( 1.000000000000000000, 0.000000000000000000, 0.000000000000000000 ) ) ;
#158 = SURFACE_SIDE_STYLE ('',( #2 ) ) ;
#159 = CIRCLE ( 'NONE', #326, 12.50117762165416302 ) ;
#160 = AXIS2_PLACEMENT_3D ( 'NONE', #109, #324, #322 ) ;
#161 = SPHERICAL_SURFACE ( 'NONE', #160, 125.0000000000000000 ) ;
#162 = SURFACE_STYLE_USAGE ( .BOTH. , #37 ) ;
#163 = VERTEX_POINT ( 'NONE', #49 ) ;
#164 = VERTEX_POINT ( 'NONE', #28 ) ;
#165 = CONICAL_SURFACE ( 'NONE', #292, 12.50763511949362794, 0.7853981633973986520 ) ;
#166 = CARTESIAN_POINT ( 'NONE',  ( 0.000000000000000000, 12.50117762165413815, 9.979855148039979085 ) ) ;
#167 =( GEOMETRIC_REPRESENTATION_CONTEXT ( 3 ) GLOBAL_UNCERTAINTY_ASSIGNED_CONTEXT ( ( #261 ) ) GLOBAL_UNIT_ASSIGNED_CONTEXT ( ( #239, #131, #72 ) ) REPRESENTATION_CONTEXT ( 'NONE', 'WORKASPACE' ) );
#168 = ORIENTED_EDGE ( 'NONE', *, *, #225, .T. ) ;
#169 =( GEOMETRIC_REPRESENTATION_CONTEXT ( 3 ) GLOBAL_UNCERTAINTY_ASSIGNED_CONTEXT ( ( #144 ) ) GLOBAL_UNIT_ASSIGNED_CONTEXT ( ( #13, #114, #11 ) ) REPRESENTATION_CONTEXT ( 'NONE', 'WORKASPACE' ) );
#170 = EDGE_CURVE ( 'NONE', #195, #163, #130, .T. ) ;
#171 = EDGE_LOOP ( 'NONE', ( #296, #58, #39, #250, #280 ) ) ;
#172 = DIRECTION ( 'NONE',  ( -1.000000000000000000, 0.000000000000000000, 0.000000000000000000 ) ) ;
#173 = EDGE_CURVE ( 'NONE', #124, #88, #318, .T. ) ;
#174 = CARTESIAN_POINT ( 'NONE',  ( 0.000000000000000000, 7.654042494670957804E-15, 9.353166425306591591 ) ) ;
#175 = AXIS2_PLACEMENT_3D ( 'NONE', #243, #157, #105 ) ;
#176 = DIRECTION ( 'NONE',  ( 1.000000000000000000, 0.000000000000000000, 0.000000000000000000 ) ) ;
#177 = DIRECTION ( 'NONE',  ( 1.000000000000000000, 0.000000000000000000, 0.000000000000000000 ) ) ;
#178 = LINE ( 'NONE', #204, #313 ) ;
#179 = SPHERICAL_SURFACE ( 'NONE', #151, 125.0000000000000000 ) ;
#180 = PRODUCT_DEFINITION ( 'Î´Öª', '', #255, #86 ) ;
#181 = DIRECTION ( 'NONE',  ( 0.000000000000000000, 0.000000000000000000, -1.000000000000000000 ) ) ;
#182 = DIRECTION ( 'NONE',  ( -1.000000000000000000, 0.000000000000000000, 0.000000000000000000 ) ) ;
#183 = EDGE_CURVE ( 'NONE', #316, #197, #224, .T. ) ;
#184 = CARTESIAN_POINT ( 'NONE',  ( 0.000000000000000000, 0.000000000000000000, 134.3531664253065969 ) ) ;
#185 = ADVANCED_FACE ( 'NONE', ( #129 ), #295, .F. ) ;
#186 = PRODUCT_DEFINITION_SHAPE ( 'NONE', 'NONE',  #180 ) ;
#187 = CARTESIAN_POINT ( 'NONE',  ( 0.000000000000000000, 0.000000000000000000, 9.979855148039979085 ) ) ;
#188 = EDGE_LOOP ( 'NONE', ( #91, #257, #300, #227 ) ) ;
#189 = ADVANCED_FACE ( 'NONE', ( #100 ), #179, .T. ) ;
#190 = AXIS2_PLACEMENT_3D ( 'NONE', #304, #24, #233 ) ;
#191 = STYLED_ITEM ( 'NONE', ( #34 ), #221 ) ;
#192 = CYLINDRICAL_SURFACE ( 'NONE', #104, 12.69999999999999929 ) ;
#193 = ORIENTED_EDGE ( 'NONE', *, *, #240, .T. ) ;
#194 = FILL_AREA_STYLE ('',( #137 ) ) ;
#195 = VERTEX_POINT ( 'NONE', #315 ) ;
#196 = SURFACE_STYLE_FILL_AREA ( #194 ) ;
#197 = VERTEX_POINT ( 'NONE', #213 ) ;
#198 = CONICAL_SURFACE ( 'NONE', #21, 12.69999999999999929, 0.6836225510729435628 ) ;
#199 = CARTESIAN_POINT ( 'NONE',  ( 12.69999999999999929, 1.555301434917138433E-15, 13.39999999999996660 ) ) ;
#200 = AXIS2_PLACEMENT_3D ( 'NONE', #301, #247, #278 ) ;
#201 = ORIENTED_EDGE ( 'NONE', *, *, #173, .T. ) ;
#202 = DIRECTION ( 'NONE',  ( -0.000000000000000000, -0.000000000000000000, 1.000000000000000000 ) ) ;
#203 = DIRECTION ( 'NONE',  ( 0.000000000000000000, 1.000000000000000000, 0.000000000000000000 ) ) ;
#204 = CARTESIAN_POINT ( 'NONE',  ( 12.69999999999999929, 0.000000000000000000, 10.22390766693323449 ) ) ;
#205 = CIRCLE ( 'NONE', #237, 317.8000000000000114 ) ;
#206 = PRESENTATION_LAYER_ASSIGNMENT (  '', '', ( #275 ) ) ;
#207 = CARTESIAN_POINT ( 'NONE',  ( 12.50763511949362794, 1.531743531399089458E-15, 13.59236488050635749 ) ) ;
#208 = EDGE_CURVE ( 'NONE', #145, #231, #90, .T. ) ;
#209 = DIRECTION ( 'NONE',  ( 1.000000000000000000, 0.000000000000000000, 0.000000000000000000 ) ) ;
#210 = CIRCLE ( 'NONE', #45, 12.69999999999999929 ) ;
#211 = EDGE_CURVE ( 'NONE', #40, #223, #5, .T. ) ;
#212 = CIRCLE ( 'NONE', #200, 12.69999999999999929 ) ;
#213 = CARTESIAN_POINT ( 'NONE',  ( 12.50117762165416302, 0.000000000000000000, 9.979855148039979085 ) ) ;
#214 = DIRECTION ( 'NONE',  ( 1.000000000000000000, 0.000000000000000000, 0.000000000000000000 ) ) ;
#215 = EDGE_CURVE ( 'NONE', #17, #316, #101, .T. ) ;
#216 = CARTESIAN_POINT ( 'NONE',  ( 0.000000000000000000, 0.000000000000000000, 134.3531664253065969 ) ) ;
#217 = CIRCLE ( 'NONE', #232, 12.50117762165416302 ) ;
#218 = CARTESIAN_POINT ( 'NONE',  ( 0.000000000000000000, 0.000000000000000000, 331.1461383799211262 ) ) ;
#219 = ADVANCED_FACE ( 'NONE', ( #29 ), #52, .T. ) ;
#220 = ORIENTED_EDGE ( 'NONE', *, *, #329, .T. ) ;
#221 = MANIFOLD_SOLID_BREP ( 'µ¹½Ç2', #309 ) ;
#222 = DIRECTION ( 'NONE',  ( -0.000000000000000000, -0.000000000000000000, 1.000000000000000000 ) ) ;
#223 = VERTEX_POINT ( 'NONE', #102 ) ;
#224 = CIRCLE ( 'NONE', #112, 12.50117762165416302 ) ;
#225 = EDGE_CURVE ( 'NONE', #308, #164, #291, .T. ) ;
#226 = DIRECTION ( 'NONE',  ( -1.000000000000000000, 0.000000000000000000, 0.000000000000000000 ) ) ;
#227 = ORIENTED_EDGE ( 'NONE', *, *, #122, .T. ) ;
#228 =( LENGTH_UNIT ( ) NAMED_UNIT ( * ) SI_UNIT ( .MILLI., .METRE. ) );
#229 = EDGE_LOOP ( 'NONE', ( #42, #110, #253, #321 ) ) ;
#230 = DIRECTION ( 'NONE',  ( -0.000000000000000000, -0.000000000000000000, -1.000000000000000000 ) ) ;
#231 = VERTEX_POINT ( 'NONE', #244 ) ;
#232 = AXIS2_PLACEMENT_3D ( 'NONE', #54, #79, #18 ) ;
#233 = DIRECTION ( 'NONE',  ( -1.000000000000000000, 0.000000000000000000, 0.000000000000000000 ) ) ;
#234 = CARTESIAN_POINT ( 'NONE',  ( 0.000000000000000000, 0.000000000000000000, 331.1461383799211262 ) ) ;
#235 = DIRECTION ( 'NONE',  ( -0.000000000000000000, -0.000000000000000000, 1.000000000000000000 ) ) ;
#236 = VERTEX_POINT ( 'NONE', #6 ) ;
#237 = AXIS2_PLACEMENT_3D ( 'NONE', #330, #98, #118 ) ;
#238 = FACE_OUTER_BOUND ( 'NONE', #19, .T. ) ;
#239 =( LENGTH_UNIT ( ) NAMED_UNIT ( * ) SI_UNIT ( .MILLI., .METRE. ) );
#240 = EDGE_CURVE ( 'NONE', #17, #145, #36, .T. ) ;
#241 = DIRECTION ( 'NONE',  ( -0.000000000000000000, -0.000000000000000000, 1.000000000000000000 ) ) ;
#242 = VECTOR ( 'NONE', #48, 1000.000000000000000 ) ;
#243 = CARTESIAN_POINT ( 'NONE',  ( 0.000000000000000000, 0.000000000000000000, 331.1461383799211262 ) ) ;
#244 = CARTESIAN_POINT ( 'NONE',  ( -12.50117762165416302, 1.543127075455133718E-15, 9.979855148039979085 ) ) ;
#245 = EDGE_CURVE ( 'NONE', #231, #316, #217, .T. ) ;
#246 = PRODUCT ( 'GLM5-025B-500', 'GLM5-025B-500', '', ( #146 ) ) ;
#247 = DIRECTION ( 'NONE',  ( -0.000000000000000000, -0.000000000000000000, 1.000000000000000000 ) ) ;
#248 = ADVANCED_FACE ( 'NONE', ( #116 ), #161, .T. ) ;
#249 = PRESENTATION_STYLE_ASSIGNMENT (( #162 ) ) ;
#250 = ORIENTED_EDGE ( 'NONE', *, *, #211, .F. ) ;
#251 = ORIENTED_EDGE ( 'NONE', *, *, #208, .T. ) ;
#252 = MECHANICAL_DESIGN_GEOMETRIC_PRESENTATION_REPRESENTATION (  '', ( #275 ), #169 ) ;
#253 = ORIENTED_EDGE ( 'NONE', *, *, #170, .T. ) ;
#254 = ADVANCED_FACE ( 'NONE', ( #142 ), #192, .T. ) ;
#255 = PRODUCT_DEFINITION_FORMATION_WITH_SPECIFIED_SOURCE ( 'ÈÎºÎ', '', #246, .NOT_KNOWN. ) ;
#256 = CARTESIAN_POINT ( 'NONE',  ( 0.000000000000000000, 0.000000000000000000, 0.000000000000000000 ) ) ;
#257 = ORIENTED_EDGE ( 'NONE', *, *, #215, .T. ) ;
#258 = ORIENTED_EDGE ( 'NONE', *, *, #329, .F. ) ;
#259 = AXIS2_PLACEMENT_3D ( 'NONE', #84, #222, #87 ) ;
#260 = CARTESIAN_POINT ( 'NONE',  ( 0.000000000000000000, 0.000000000000000000, 13.39999999999996660 ) ) ;
#261 = UNCERTAINTY_MEASURE_WITH_UNIT (LENGTH_MEASURE( 1.000000000000000082E-05 ), #239, 'distance_accuracy_value', 'NONE');
#262 = DIRECTION ( 'NONE',  ( -1.000000000000000000, 0.000000000000000000, 0.000000000000000000 ) ) ;
#263 = CARTESIAN_POINT ( 'NONE',  ( 0.000000000000000000, 0.000000000000000000, 13.39999999999996660 ) ) ;
#264 = CIRCLE ( 'NONE', #89, 12.50763511949364570 ) ;
#265 = CARTESIAN_POINT ( 'NONE',  ( 0.000000000000000000, 0.000000000000000000, 9.979855148039979085 ) ) ;
#266 = SHAPE_DEFINITION_REPRESENTATION ( #186, #59 ) ;
#267 = FILL_AREA_STYLE ('',( #32 ) ) ;
#268 = DIRECTION ( 'NONE',  ( 0.000000000000000000, 0.000000000000000000, -1.000000000000000000 ) ) ;
#269 = DIRECTION ( 'NONE',  ( 0.000000000000000000, 0.000000000000000000, -1.000000000000000000 ) ) ;
#270 = CARTESIAN_POINT ( 'NONE',  ( 12.69999999999999929, 1.555301434917138433E-15, 20.00000000000000000 ) ) ;
#271 = CARTESIAN_POINT ( 'NONE',  ( 0.000000000000000000, 0.000000000000000000, 20.00000000000000000 ) ) ;
#272 = ADVANCED_FACE ( 'NONE', ( #41 ), #62, .T. ) ;
#273 =( NAMED_UNIT ( * ) SI_UNIT ( $, .STERADIAN. ) SOLID_ANGLE_UNIT ( ) );
#274 = CIRCLE ( 'NONE', #125, 12.50763511949364570 ) ;
#275 = STYLED_ITEM ( 'NONE', ( #249 ), #59 ) ;
#276 = ORIENTED_EDGE ( 'NONE', *, *, #122, .F. ) ;
#277 = EDGE_CURVE ( 'NONE', #231, #236, #111, .T. ) ;
#278 = DIRECTION ( 'NONE',  ( -1.000000000000000000, 0.000000000000000000, 0.000000000000000000 ) ) ;
#279 = ORIENTED_EDGE ( 'NONE', *, *, #183, .F. ) ;
#280 = ORIENTED_EDGE ( 'NONE', *, *, #30, .F. ) ;
#281 = DIRECTION ( 'NONE',  ( 0.000000000000000000, 0.000000000000000000, 1.000000000000000000 ) ) ;
#282 = ORIENTED_EDGE ( 'NONE', *, *, #126, .T. ) ;
#283 = ORIENTED_EDGE ( 'NONE', *, *, #245, .F. ) ;
#284 = DIRECTION ( 'NONE',  ( 0.000000000000000000, 0.000000000000000000, -1.000000000000000000 ) ) ;
#285 = VECTOR ( 'NONE', #288, 1000.000000000000114 ) ;
#286 = DIRECTION ( 'NONE',  ( 0.6316056889623122839, 0.000000000000000000, 0.7752897868993521291 ) ) ;
#287 = DIRECTION ( 'NONE',  ( 0.000000000000000000, 0.000000000000000000, -1.000000000000000000 ) ) ;
#288 = DIRECTION ( 'NONE',  ( 0.7071067811865124897, 8.659560562354503915E-17, -0.7071067811865825448 ) ) ;
#289 = FACE_OUTER_BOUND ( 'NONE', #77, .T. ) ;
#290 = COLOUR_RGB ( '',1.000000000000000000, 1.000000000000000000, 1.000000000000000000 ) ;
#291 = LINE ( 'NONE', #270, #3 ) ;
#292 = AXIS2_PLACEMENT_3D ( 'NONE', #305, #51, #47 ) ;
#293 = APPLICATION_CONTEXT ( 'automotive_design' ) ;
#294 = DIRECTION ( 'NONE',  ( -1.000000000000000000, 0.000000000000000000, 0.000000000000000000 ) ) ;
#295 = SPHERICAL_SURFACE ( 'NONE', #95, 317.8000000000000114 ) ;
#296 = ORIENTED_EDGE ( 'NONE', *, *, #25, .F. ) ;
#297 = AXIS2_PLACEMENT_3D ( 'NONE', #307, #64, #172 ) ;
#298 = VECTOR ( 'NONE', #320, 1000.000000000000000 ) ;
#299 = ORIENTED_EDGE ( 'NONE', *, *, #215, .F. ) ;
#300 = ORIENTED_EDGE ( 'NONE', *, *, #183, .T. ) ;
#301 = CARTESIAN_POINT ( 'NONE',  ( 0.000000000000000000, 0.000000000000000000, 10.22390766693323449 ) ) ;
#302 = ORIENTED_EDGE ( 'NONE', *, *, #71, .T. ) ;
#303 = ORIENTED_EDGE ( 'NONE', *, *, #277, .T. ) ;
#304 = CARTESIAN_POINT ( 'NONE',  ( 0.000000000000000000, 0.000000000000000000, 13.59236488050635749 ) ) ;
#305 = CARTESIAN_POINT ( 'NONE',  ( 0.000000000000000000, 0.000000000000000000, 13.59236488050635749 ) ) ;
#306 = CARTESIAN_POINT ( 'NONE',  ( -12.69999999999999929, 0.000000000000000000, 20.00000000000000000 ) ) ;
#307 = CARTESIAN_POINT ( 'NONE',  ( 0.000000000000000000, 0.000000000000000000, 10.22390766693323449 ) ) ;
#308 = VERTEX_POINT ( 'NONE', #199 ) ;
#309 = CLOSED_SHELL ( 'NONE', ( #272, #92, #69, #189, #219, #254, #248, #185, #80, #97 ) ) ;
#310 = DIRECTION ( 'NONE',  ( 1.000000000000000000, 0.000000000000000000, 0.000000000000000000 ) ) ;
#311 = DIRECTION ( 'NONE',  ( 0.000000000000000000, 1.000000000000000000, 0.000000000000000000 ) ) ;
#312 = DIRECTION ( 'NONE',  ( -1.000000000000000000, 1.224646799147353207E-16, 0.000000000000000000 ) ) ;
#313 = VECTOR ( 'NONE', #286, 1000.000000000000000 ) ;
#314 = PRESENTATION_LAYER_ASSIGNMENT (  '', '', ( #191 ) ) ;
#315 = CARTESIAN_POINT ( 'NONE',  ( -1.531743531399027729E-15, -12.50763511949312701, 13.59236488050630243 ) ) ;
#316 = VERTEX_POINT ( 'NONE', #166 ) ;
#317 = ORIENTED_EDGE ( 'NONE', *, *, #245, .T. ) ;
#318 = CIRCLE ( 'NONE', #175, 317.8000000000000114 ) ;
#319 = AXIS2_PLACEMENT_3D ( 'NONE', #256, #281, #50 ) ;
#320 = DIRECTION ( 'NONE',  ( -0.6316056889623122839, 7.734938853109543876E-17, 0.7752897868993521291 ) ) ;
#321 = ORIENTED_EDGE ( 'NONE', *, *, #25, .T. ) ;
#322 = DIRECTION ( 'NONE',  ( 0.000000000000000000, 1.000000000000000000, 0.000000000000000000 ) ) ;
#323 = EDGE_LOOP ( 'NONE', ( #283, #303, #258, #115, #279 ) ) ;
#324 = DIRECTION ( 'NONE',  ( -1.000000000000000000, 0.000000000000000000, 0.000000000000000000 ) ) ;
#325 = EDGE_LOOP ( 'NONE', ( #117, #201, #60, #38 ) ) ;
#326 = AXIS2_PLACEMENT_3D ( 'NONE', #265, #287, #176 ) ;
#327 = MECHANICAL_DESIGN_GEOMETRIC_PRESENTATION_REPRESENTATION (  '', ( #191 ), #167 ) ;
#328 = DIRECTION ( 'NONE',  ( -0.000000000000000000, -0.000000000000000000, 1.000000000000000000 ) ) ;
#329 = EDGE_CURVE ( 'NONE', #164, #236, #212, .T. ) ;
#330 = CARTESIAN_POINT ( 'NONE',  ( 0.000000000000000000, 0.000000000000000000, 331.1461383799211262 ) ) ;
#331 = DIRECTION ( 'NONE',  ( 0.000000000000000000, 0.000000000000000000, -1.000000000000000000 ) ) ;
#332 = DIRECTION ( 'NONE',  ( 1.000000000000000000, 0.000000000000000000, 0.000000000000000000 ) ) ;
ENDSEC;
END-ISO-10303-21;
