ISO-10303-21;
HEADER;
FILE_DESCRIPTION (( 'STEP AP214' ),
    '1' );
FILE_NAME ('GLM5-025B-100.STEP',
    '2024-08-09T03:10:31',
    ( 'Windows User' ),
    ( 'P R C' ),
    'SwSTEP 2.0',
    'SolidWorks 2022',
    '' );
FILE_SCHEMA (( 'AUTOMOTIVE_DESIGN' ));
ENDSEC;

DATA;
#1 = PRODUCT ( 'GLM5-025B-100', 'GLM5-025B-100', '', ( #167 ) ) ;
#2 = FACE_OUTER_BOUND ( 'NONE', #105, .T. ) ;
#3 = ADVANCED_BREP_SHAPE_REPRESENTATION ( 'GLM5-025B-100', ( #84, #191 ), #238 ) ;
#4 =( GEOMETRIC_REPRESENTATION_CONTEXT ( 3 ) GLOBAL_UNCERTAINTY_ASSIGNED_CONTEXT ( ( #211 ) ) GLOBAL_UNIT_ASSIGNED_CONTEXT ( ( #151, #19, #42 ) ) REPRESENTATION_CONTEXT ( 'NONE', 'WORKASPACE' ) );
#5 = ADVANCED_FACE ( 'NONE', ( #109 ), #91, .T. ) ;
#6 =( NAMED_UNIT ( * ) SI_UNIT ( $, .STERADIAN. ) SOLID_ANGLE_UNIT ( ) );
#7 = ORIENTED_EDGE ( 'NONE', *, *, #136, .F. ) ;
#8 = AXIS2_PLACEMENT_3D ( 'NONE', #31, #118, #77 ) ;
#9 = CARTESIAN_POINT ( 'NONE',  ( 0.000000000000000000, 0.000000000000000000, 46.23910826874370628 ) ) ;
#10 = DIRECTION ( 'NONE',  ( 0.000000000000000000, 1.000000000000000000, 0.000000000000000000 ) ) ;
#11 = FACE_OUTER_BOUND ( 'NONE', #220, .T. ) ;
#12 = AXIS2_PLACEMENT_3D ( 'NONE', #113, #178, #255 ) ;
#13 = SURFACE_STYLE_USAGE ( .BOTH. , #76 ) ;
#14 = CARTESIAN_POINT ( 'NONE',  ( 0.000000000000000000, 0.000000000000000000, 11.64648843048751026 ) ) ;
#15 = CARTESIAN_POINT ( 'NONE',  ( 12.69999999999999929, 1.555301434917138433E-15, 11.49999999999998224 ) ) ;
#16 = EDGE_CURVE ( 'NONE', #252, #150, #169, .T. ) ;
#17 = MECHANICAL_DESIGN_GEOMETRIC_PRESENTATION_REPRESENTATION (  '', ( #270 ), #175 ) ;
#18 = EDGE_CURVE ( 'NONE', #122, #111, #29, .T. ) ;
#19 =( NAMED_UNIT ( * ) PLANE_ANGLE_UNIT ( ) SI_UNIT ( $, .RADIAN. ) );
#20 = ORIENTED_EDGE ( 'NONE', *, *, #166, .T. ) ;
#21 = ORIENTED_EDGE ( 'NONE', *, *, #144, .F. ) ;
#22 = ORIENTED_EDGE ( 'NONE', *, *, #70, .T. ) ;
#23 = DIRECTION ( 'NONE',  ( 0.000000000000000000, 0.000000000000000000, -1.000000000000000000 ) ) ;
#24 = VERTEX_POINT ( 'NONE', #154 ) ;
#25 = MECHANICAL_DESIGN_GEOMETRIC_PRESENTATION_REPRESENTATION (  '', ( #57 ), #4 ) ;
#26 = ORIENTED_EDGE ( 'NONE', *, *, #148, .T. ) ;
#27 = CARTESIAN_POINT ( 'NONE',  ( -1.537361776166271362E-15, -12.55351156951246949, 11.64648843048750315 ) ) ;
#28 = DIRECTION ( 'NONE',  ( 0.000000000000000000, 0.000000000000000000, -1.000000000000000000 ) ) ;
#29 = CIRCLE ( 'NONE', #189, 12.55351156951247660 ) ;
#30 = FILL_AREA_STYLE_COLOUR ( '', #236 ) ;
#31 = CARTESIAN_POINT ( 'NONE',  ( 0.000000000000000000, 0.000000000000000000, 10.00000000000000000 ) ) ;
#32 = FACE_OUTER_BOUND ( 'NONE', #159, .T. ) ;
#33 = AXIS2_PLACEMENT_3D ( 'NONE', #14, #28, #244 ) ;
#34 = DIRECTION ( 'NONE',  ( -0.000000000000000000, -0.000000000000000000, -1.000000000000000000 ) ) ;
#35 = VECTOR ( 'NONE', #117, 999.9999999999998863 ) ;
#36 = ADVANCED_FACE ( 'NONE', ( #195 ), #206, .F. ) ;
#37 = EDGE_LOOP ( 'NONE', ( #193, #69, #214, #107, #278 ) ) ;
#38 = CONICAL_SURFACE ( 'NONE', #53, 12.55351156951247482, 0.7853981633974365106 ) ;
#39 = SHAPE_DEFINITION_REPRESENTATION ( #197, #3 ) ;
#40 = CARTESIAN_POINT ( 'NONE',  ( 0.000000000000000000, 0.000000000000000000, 25.45024271654008885 ) ) ;
#41 = EDGE_LOOP ( 'NONE', ( #219, #280, #276, #198 ) ) ;
#42 =( NAMED_UNIT ( * ) SI_UNIT ( $, .STERADIAN. ) SOLID_ANGLE_UNIT ( ) );
#43 = ORIENTED_EDGE ( 'NONE', *, *, #81, .T. ) ;
#44 = VECTOR ( 'NONE', #127, 1000.000000000000000 ) ;
#45 = CIRCLE ( 'NONE', #213, 12.69999999999999751 ) ;
#46 = ORIENTED_EDGE ( 'NONE', *, *, #70, .F. ) ;
#47 = ORIENTED_EDGE ( 'NONE', *, *, #18, .T. ) ;
#48 = APPLICATION_CONTEXT ( 'automotive_design' ) ;
#49 = CARTESIAN_POINT ( 'NONE',  ( 0.000000000000000000, 12.55351156951246949, 11.64648843048750315 ) ) ;
#50 = CARTESIAN_POINT ( 'NONE',  ( 0.000000000000000000, 0.000000000000000000, 25.45024271654008885 ) ) ;
#51 = DIRECTION ( 'NONE',  ( 1.000000000000000000, 0.000000000000000000, 0.000000000000000000 ) ) ;
#52 = CARTESIAN_POINT ( 'NONE',  ( 0.000000000000000000, 0.000000000000000000, 20.00000000000000000 ) ) ;
#53 = AXIS2_PLACEMENT_3D ( 'NONE', #75, #114, #95 ) ;
#54 = DIRECTION ( 'NONE',  ( 0.000000000000000000, 1.000000000000000000, 0.000000000000000000 ) ) ;
#55 = SURFACE_STYLE_FILL_AREA ( #183 ) ;
#56 = DIRECTION ( 'NONE',  ( 1.000000000000000000, -0.000000000000000000, 0.000000000000000000 ) ) ;
#57 = STYLED_ITEM ( 'NONE', ( #168 ), #3 ) ;
#58 = EDGE_CURVE ( 'NONE', #134, #65, #121, .T. ) ;
#59 = AXIS2_PLACEMENT_3D ( 'NONE', #224, #102, #228 ) ;
#60 = VERTEX_POINT ( 'NONE', #161 ) ;
#61 = DIRECTION ( 'NONE',  ( 1.000000000000000000, 0.000000000000000000, 0.000000000000000000 ) ) ;
#62 = ORIENTED_EDGE ( 'NONE', *, *, #199, .F. ) ;
#63 = SURFACE_STYLE_USAGE ( .BOTH. , #251 ) ;
#64 = ORIENTED_EDGE ( 'NONE', *, *, #136, .T. ) ;
#65 = VERTEX_POINT ( 'NONE', #15 ) ;
#66 = ORIENTED_EDGE ( 'NONE', *, *, #199, .T. ) ;
#67 = AXIS2_PLACEMENT_3D ( 'NONE', #72, #158, #135 ) ;
#68 = CARTESIAN_POINT ( 'NONE',  ( 12.69999999999999929, 1.555301434917138433E-15, 20.00000000000000000 ) ) ;
#69 = ORIENTED_EDGE ( 'NONE', *, *, #80, .F. ) ;
#70 = EDGE_CURVE ( 'NONE', #24, #74, #82, .T. ) ;
#71 = LINE ( 'NONE', #68, #89 ) ;
#72 = CARTESIAN_POINT ( 'NONE',  ( 0.000000000000000000, 0.000000000000000000, 11.64648843048750315 ) ) ;
#73 = AXIS2_PLACEMENT_3D ( 'NONE', #243, #208, #51 ) ;
#74 = VERTEX_POINT ( 'NONE', #185 ) ;
#75 = CARTESIAN_POINT ( 'NONE',  ( 0.000000000000000000, 0.000000000000000000, 11.64648843048751026 ) ) ;
#76 = SURFACE_SIDE_STYLE ('',( #55 ) ) ;
#77 = DIRECTION ( 'NONE',  ( 1.000000000000000000, 0.000000000000000000, 0.000000000000000000 ) ) ;
#78 = AXIS2_PLACEMENT_3D ( 'NONE', #162, #56, #262 ) ;
#79 = CARTESIAN_POINT ( 'NONE',  ( -12.69999999999999751, 0.000000000000000000, 10.00000000000000000 ) ) ;
#80 = EDGE_CURVE ( 'NONE', #111, #134, #203, .T. ) ;
#81 = EDGE_CURVE ( 'NONE', #150, #24, #216, .T. ) ;
#82 = CIRCLE ( 'NONE', #129, 12.69999999999999751 ) ;
#83 = PRODUCT_DEFINITION_CONTEXT ( 'detailed design', #234, 'design' ) ;
#84 = MANIFOLD_SOLID_BREP ( 'µ¹½Ç1', #97 ) ;
#85 = ORIENTED_EDGE ( 'NONE', *, *, #16, .T. ) ;
#86 = DIRECTION ( 'NONE',  ( -0.000000000000000000, -0.000000000000000000, 1.000000000000000000 ) ) ;
#87 = EDGE_CURVE ( 'NONE', #221, #150, #45, .T. ) ;
#88 = DIRECTION ( 'NONE',  ( -0.000000000000000000, -0.000000000000000000, 1.000000000000000000 ) ) ;
#89 = VECTOR ( 'NONE', #172, 1000.000000000000000 ) ;
#90 = ORIENTED_EDGE ( 'NONE', *, *, #274, .T. ) ;
#91 = SPHERICAL_SURFACE ( 'NONE', #271, 19.99999999999999645 ) ;
#92 = CIRCLE ( 'NONE', #257, 12.69999999999999929 ) ;
#93 = AXIS2_PLACEMENT_3D ( 'NONE', #260, #225, #116 ) ;
#94 = SPHERICAL_SURFACE ( 'NONE', #12, 36.79999999999999716 ) ;
#95 = DIRECTION ( 'NONE',  ( -1.000000000000000000, 0.000000000000000000, 0.000000000000000000 ) ) ;
#96 = FACE_OUTER_BOUND ( 'NONE', #37, .T. ) ;
#97 = CLOSED_SHELL ( 'NONE', ( #241, #229, #246, #125, #115, #36, #5, #120 ) ) ;
#98 = VERTEX_POINT ( 'NONE', #143 ) ;
#99 = AXIS2_PLACEMENT_3D ( 'NONE', #248, #186, #180 ) ;
#100 = PRODUCT_DEFINITION ( 'Î´Öª', '', #126, #83 ) ;
#101 = DIRECTION ( 'NONE',  ( 1.000000000000000000, 0.000000000000000000, 0.000000000000000000 ) ) ;
#102 = DIRECTION ( 'NONE',  ( -0.000000000000000000, -0.000000000000000000, 1.000000000000000000 ) ) ;
#103 = CARTESIAN_POINT ( 'NONE',  ( 0.000000000000000000, 12.69999999999999396, 9.999999999999998224 ) ) ;
#104 = CARTESIAN_POINT ( 'NONE',  ( 12.55351156951247660, 1.546331605541705390E-15, 11.64648843048750315 ) ) ;
#105 = EDGE_LOOP ( 'NONE', ( #253, #165, #85, #43, #22 ) ) ;
#106 = EDGE_CURVE ( 'NONE', #252, #65, #92, .T. ) ;
#107 = ORIENTED_EDGE ( 'NONE', *, *, #217, .T. ) ;
#108 = CARTESIAN_POINT ( 'NONE',  ( 0.000000000000000000, 0.000000000000000000, 11.64648843048750315 ) ) ;
#109 = FACE_OUTER_BOUND ( 'NONE', #173, .T. ) ;
#110 = DIRECTION ( 'NONE',  ( 0.000000000000000000, 1.000000000000000000, 0.000000000000000000 ) ) ;
#111 = VERTEX_POINT ( 'NONE', #27 ) ;
#112 = PRESENTATION_LAYER_ASSIGNMENT (  '', '', ( #270 ) ) ;
#113 = CARTESIAN_POINT ( 'NONE',  ( 0.000000000000000000, 0.000000000000000000, 46.23910826874370628 ) ) ;
#114 = DIRECTION ( 'NONE',  ( 0.000000000000000000, 0.000000000000000000, -1.000000000000000000 ) ) ;
#115 = ADVANCED_FACE ( 'NONE', ( #2 ), #202, .T. ) ;
#116 = DIRECTION ( 'NONE',  ( -1.224646799147353207E-16, -1.000000000000000000, 0.000000000000000000 ) ) ;
#117 = DIRECTION ( 'NONE',  ( 0.7071067811865392461, 8.659560562354831785E-17, -0.7071067811865558994 ) ) ;
#118 = DIRECTION ( 'NONE',  ( -0.000000000000000000, -0.000000000000000000, 1.000000000000000000 ) ) ;
#119 = DIRECTION ( 'NONE',  ( 1.000000000000000000, 0.000000000000000000, 0.000000000000000000 ) ) ;
#120 = ADVANCED_FACE ( 'NONE', ( #96 ), #38, .T. ) ;
#121 = LINE ( 'NONE', #209, #35 ) ;
#122 = VERTEX_POINT ( 'NONE', #179 ) ;
#123 = AXIS2_PLACEMENT_3D ( 'NONE', #9, #160, #239 ) ;
#124 = ORIENTED_EDGE ( 'NONE', *, *, #106, .F. ) ;
#125 = ADVANCED_FACE ( 'NONE', ( #11 ), #184, .T. ) ;
#126 = PRODUCT_DEFINITION_FORMATION_WITH_SPECIFIED_SOURCE ( 'ÈÎºÎ', '', #1, .NOT_KNOWN. ) ;
#127 = DIRECTION ( 'NONE',  ( -0.000000000000000000, -0.000000000000000000, -1.000000000000000000 ) ) ;
#128 = DIRECTION ( 'NONE',  ( 1.000000000000000000, 0.000000000000000000, 0.000000000000000000 ) ) ;
#129 = AXIS2_PLACEMENT_3D ( 'NONE', #247, #242, #119 ) ;
#130 = ORIENTED_EDGE ( 'NONE', *, *, #163, .F. ) ;
#131 = CIRCLE ( 'NONE', #8, 12.69999999999999751 ) ;
#132 = ORIENTED_EDGE ( 'NONE', *, *, #58, .T. ) ;
#133 =( NAMED_UNIT ( * ) SI_UNIT ( $, .STERADIAN. ) SOLID_ANGLE_UNIT ( ) );
#134 = VERTEX_POINT ( 'NONE', #104 ) ;
#135 = DIRECTION ( 'NONE',  ( 1.000000000000000000, 0.000000000000000000, 0.000000000000000000 ) ) ;
#136 = EDGE_CURVE ( 'NONE', #60, #111, #188, .T. ) ;
#137 = DIRECTION ( 'NONE',  ( -1.000000000000000000, 0.000000000000000000, 0.000000000000000000 ) ) ;
#138 = CARTESIAN_POINT ( 'NONE',  ( 0.000000000000000000, 0.000000000000000000, 46.23910826874370628 ) ) ;
#139 = DIRECTION ( 'NONE',  ( -0.000000000000000000, -0.000000000000000000, -1.000000000000000000 ) ) ;
#140 = PRESENTATION_STYLE_ASSIGNMENT (( #13 ) ) ;
#141 = DIRECTION ( 'NONE',  ( -1.000000000000000000, 0.000000000000000000, 0.000000000000000000 ) ) ;
#142 =( NAMED_UNIT ( * ) PLANE_ANGLE_UNIT ( ) SI_UNIT ( $, .RADIAN. ) );
#143 = CARTESIAN_POINT ( 'NONE',  ( 0.000000000000000000, 1.224646799147353059E-15, 5.450242716540092403 ) ) ;
#144 = EDGE_CURVE ( 'NONE', #60, #155, #245, .T. ) ;
#145 = APPLICATION_PROTOCOL_DEFINITION ( 'draft international standard', 'automotive_design', 1998, #48 ) ;
#146 = PRESENTATION_LAYER_ASSIGNMENT (  '', '', ( #57 ) ) ;
#147 = DIRECTION ( 'NONE',  ( 0.000000000000000000, 0.000000000000000000, 1.000000000000000000 ) ) ;
#148 = EDGE_CURVE ( 'NONE', #134, #155, #149, .T. ) ;
#149 = CIRCLE ( 'NONE', #67, 12.55351156951247660 ) ;
#150 = VERTEX_POINT ( 'NONE', #79 ) ;
#151 =( LENGTH_UNIT ( ) NAMED_UNIT ( * ) SI_UNIT ( .MILLI., .METRE. ) );
#152 = ORIENTED_EDGE ( 'NONE', *, *, #87, .T. ) ;
#153 = DIRECTION ( 'NONE',  ( 1.000000000000000000, 0.000000000000000000, 0.000000000000000000 ) ) ;
#154 = CARTESIAN_POINT ( 'NONE',  ( -1.555301434917138038E-15, -12.69999999999999396, 9.999999999999998224 ) ) ;
#155 = VERTEX_POINT ( 'NONE', #49 ) ;
#156 =( LENGTH_UNIT ( ) NAMED_UNIT ( * ) SI_UNIT ( .MILLI., .METRE. ) );
#157 = SPHERICAL_SURFACE ( 'NONE', #205, 19.99999999999999645 ) ;
#158 = DIRECTION ( 'NONE',  ( -0.000000000000000000, -0.000000000000000000, 1.000000000000000000 ) ) ;
#159 = EDGE_LOOP ( 'NONE', ( #21, #64, #237, #26 ) ) ;
#160 = DIRECTION ( 'NONE',  ( 1.000000000000000000, 0.000000000000000000, 0.000000000000000000 ) ) ;
#161 = CARTESIAN_POINT ( 'NONE',  ( 0.000000000000000000, 2.253350110431129645E-15, 9.439108268743709118 ) ) ;
#162 = CARTESIAN_POINT ( 'NONE',  ( 0.000000000000000000, 0.000000000000000000, 25.45024271654008885 ) ) ;
#163 = EDGE_CURVE ( 'NONE', #98, #24, #200, .T. ) ;
#164 = VECTOR ( 'NONE', #207, 999.9999999999998863 ) ;
#165 = ORIENTED_EDGE ( 'NONE', *, *, #268, .T. ) ;
#166 = EDGE_CURVE ( 'NONE', #98, #221, #250, .T. ) ;
#167 = PRODUCT_CONTEXT ( 'NONE', #48, 'mechanical' ) ;
#168 = PRESENTATION_STYLE_ASSIGNMENT (( #63 ) ) ;
#169 = LINE ( 'NONE', #177, #44 ) ;
#170 = DIRECTION ( 'NONE',  ( 1.000000000000000000, 0.000000000000000000, 0.000000000000000000 ) ) ;
#171 = CIRCLE ( 'NONE', #210, 12.69999999999999929 ) ;
#172 = DIRECTION ( 'NONE',  ( -0.000000000000000000, -0.000000000000000000, -1.000000000000000000 ) ) ;
#173 = EDGE_LOOP ( 'NONE', ( #130, #20, #62, #46 ) ) ;
#174 =( NAMED_UNIT ( * ) PLANE_ANGLE_UNIT ( ) SI_UNIT ( $, .RADIAN. ) );
#175 =( GEOMETRIC_REPRESENTATION_CONTEXT ( 3 ) GLOBAL_UNCERTAINTY_ASSIGNED_CONTEXT ( ( #176 ) ) GLOBAL_UNIT_ASSIGNED_CONTEXT ( ( #226, #142, #6 ) ) REPRESENTATION_CONTEXT ( 'NONE', 'WORKASPACE' ) );
#176 = UNCERTAINTY_MEASURE_WITH_UNIT (LENGTH_MEASURE( 1.000000000000000082E-05 ), #226, 'distance_accuracy_value', 'NONE');
#177 = CARTESIAN_POINT ( 'NONE',  ( -12.69999999999999929, 0.000000000000000000, 20.00000000000000000 ) ) ;
#178 = DIRECTION ( 'NONE',  ( -1.000000000000000000, 0.000000000000000000, 0.000000000000000000 ) ) ;
#179 = CARTESIAN_POINT ( 'NONE',  ( -12.55351156951247660, 0.000000000000000000, 11.64648843048750315 ) ) ;
#180 = DIRECTION ( 'NONE',  ( -1.224646799147353207E-16, -1.000000000000000000, 0.000000000000000000 ) ) ;
#181 = ORIENTED_EDGE ( 'NONE', *, *, #106, .T. ) ;
#182 = DIRECTION ( 'NONE',  ( -0.000000000000000000, -0.000000000000000000, 1.000000000000000000 ) ) ;
#183 = FILL_AREA_STYLE ('',( #30 ) ) ;
#184 = CYLINDRICAL_SURFACE ( 'NONE', #218, 12.69999999999999929 ) ;
#185 = CARTESIAN_POINT ( 'NONE',  ( 12.69999999999999751, 1.555301434917138235E-15, 10.00000000000000000 ) ) ;
#186 = DIRECTION ( 'NONE',  ( -1.000000000000000000, 1.224646799147353207E-16, 0.000000000000000000 ) ) ;
#187 = UNCERTAINTY_MEASURE_WITH_UNIT (LENGTH_MEASURE( 1.000000000000000082E-05 ), #156, 'distance_accuracy_value', 'NONE');
#188 = CIRCLE ( 'NONE', #93, 36.79999999999999716 ) ;
#189 = AXIS2_PLACEMENT_3D ( 'NONE', #215, #86, #170 ) ;
#190 = APPLICATION_PROTOCOL_DEFINITION ( 'draft international standard', 'automotive_design', 1998, #234 ) ;
#191 = AXIS2_PLACEMENT_3D ( 'NONE', #277, #147, #61 ) ;
#192 = ORIENTED_EDGE ( 'NONE', *, *, #261, .F. ) ;
#193 = ORIENTED_EDGE ( 'NONE', *, *, #58, .F. ) ;
#194 = CIRCLE ( 'NONE', #231, 12.55351156951247660 ) ;
#195 = FACE_OUTER_BOUND ( 'NONE', #258, .T. ) ;
#196 = CARTESIAN_POINT ( 'NONE',  ( -12.69999999999999929, 0.000000000000000000, 11.49999999999998224 ) ) ;
#197 = PRODUCT_DEFINITION_SHAPE ( 'NONE', 'NONE',  #100 ) ;
#198 = ORIENTED_EDGE ( 'NONE', *, *, #87, .F. ) ;
#199 = EDGE_CURVE ( 'NONE', #74, #221, #131, .T. ) ;
#200 = CIRCLE ( 'NONE', #99, 19.99999999999999645 ) ;
#201 = DIRECTION ( 'NONE',  ( 1.000000000000000000, 0.000000000000000000, 0.000000000000000000 ) ) ;
#202 = CYLINDRICAL_SURFACE ( 'NONE', #272, 12.69999999999999929 ) ;
#203 = CIRCLE ( 'NONE', #59, 12.55351156951247660 ) ;
#204 = CARTESIAN_POINT ( 'NONE',  ( 0.000000000000000000, 0.000000000000000000, 11.49999999999998224 ) ) ;
#205 = AXIS2_PLACEMENT_3D ( 'NONE', #50, #137, #54 ) ;
#206 = SPHERICAL_SURFACE ( 'NONE', #249, 36.79999999999999716 ) ;
#207 = DIRECTION ( 'NONE',  ( -0.7071067811865392461, 0.000000000000000000, -0.7071067811865558994 ) ) ;
#208 = DIRECTION ( 'NONE',  ( -0.000000000000000000, -0.000000000000000000, 1.000000000000000000 ) ) ;
#209 = CARTESIAN_POINT ( 'NONE',  ( 12.55351156951247482, 1.537361776166271757E-15, 11.64648843048751026 ) ) ;
#210 = AXIS2_PLACEMENT_3D ( 'NONE', #279, #23, #128 ) ;
#211 = UNCERTAINTY_MEASURE_WITH_UNIT (LENGTH_MEASURE( 1.000000000000000082E-05 ), #151, 'distance_accuracy_value', 'NONE');
#212 = FILL_AREA_STYLE ('',( #275 ) ) ;
#213 = AXIS2_PLACEMENT_3D ( 'NONE', #266, #182, #201 ) ;
#214 = ORIENTED_EDGE ( 'NONE', *, *, #18, .F. ) ;
#215 = CARTESIAN_POINT ( 'NONE',  ( 0.000000000000000000, 0.000000000000000000, 11.64648843048750315 ) ) ;
#216 = CIRCLE ( 'NONE', #73, 12.69999999999999751 ) ;
#217 = EDGE_CURVE ( 'NONE', #122, #252, #223, .T. ) ;
#218 = AXIS2_PLACEMENT_3D ( 'NONE', #52, #139, #141 ) ;
#219 = ORIENTED_EDGE ( 'NONE', *, *, #166, .F. ) ;
#220 = EDGE_LOOP ( 'NONE', ( #181, #90, #66, #152, #235 ) ) ;
#221 = VERTEX_POINT ( 'NONE', #103 ) ;
#222 = DIRECTION ( 'NONE',  ( 0.000000000000000000, 0.000000000000000000, -1.000000000000000000 ) ) ;
#223 = LINE ( 'NONE', #240, #164 ) ;
#224 = CARTESIAN_POINT ( 'NONE',  ( 0.000000000000000000, 0.000000000000000000, 11.64648843048750315 ) ) ;
#225 = DIRECTION ( 'NONE',  ( -1.000000000000000000, 1.224646799147353207E-16, 0.000000000000000000 ) ) ;
#226 =( LENGTH_UNIT ( ) NAMED_UNIT ( * ) SI_UNIT ( .MILLI., .METRE. ) );
#227 = FACE_OUTER_BOUND ( 'NONE', #41, .T. ) ;
#228 = DIRECTION ( 'NONE',  ( 1.000000000000000000, 0.000000000000000000, 0.000000000000000000 ) ) ;
#229 = ADVANCED_FACE ( 'NONE', ( #227 ), #157, .T. ) ;
#230 = CARTESIAN_POINT ( 'NONE',  ( 0.000000000000000000, 0.000000000000000000, 20.00000000000000000 ) ) ;
#231 = AXIS2_PLACEMENT_3D ( 'NONE', #108, #88, #153 ) ;
#232 = ORIENTED_EDGE ( 'NONE', *, *, #217, .F. ) ;
#233 = ORIENTED_EDGE ( 'NONE', *, *, #148, .F. ) ;
#234 = APPLICATION_CONTEXT ( 'automotive_design' ) ;
#235 = ORIENTED_EDGE ( 'NONE', *, *, #16, .F. ) ;
#236 = COLOUR_RGB ( '',1.000000000000000000, 1.000000000000000000, 1.000000000000000000 ) ;
#237 = ORIENTED_EDGE ( 'NONE', *, *, #80, .T. ) ;
#238 =( GEOMETRIC_REPRESENTATION_CONTEXT ( 3 ) GLOBAL_UNCERTAINTY_ASSIGNED_CONTEXT ( ( #187 ) ) GLOBAL_UNIT_ASSIGNED_CONTEXT ( ( #156, #174, #133 ) ) REPRESENTATION_CONTEXT ( 'NONE', 'WORKASPACE' ) );
#239 = DIRECTION ( 'NONE',  ( 0.000000000000000000, 0.000000000000000000, -1.000000000000000000 ) ) ;
#240 = CARTESIAN_POINT ( 'NONE',  ( -12.55351156951247482, 0.000000000000000000, 11.64648843048751026 ) ) ;
#241 = ADVANCED_FACE ( 'NONE', ( #267 ), #281, .T. ) ;
#242 = DIRECTION ( 'NONE',  ( -0.000000000000000000, -0.000000000000000000, 1.000000000000000000 ) ) ;
#243 = CARTESIAN_POINT ( 'NONE',  ( 0.000000000000000000, 0.000000000000000000, 10.00000000000000000 ) ) ;
#244 = DIRECTION ( 'NONE',  ( -1.000000000000000000, 0.000000000000000000, 0.000000000000000000 ) ) ;
#245 = CIRCLE ( 'NONE', #123, 36.79999999999999716 ) ;
#246 = ADVANCED_FACE ( 'NONE', ( #32 ), #94, .F. ) ;
#247 = CARTESIAN_POINT ( 'NONE',  ( 0.000000000000000000, 0.000000000000000000, 10.00000000000000000 ) ) ;
#248 = CARTESIAN_POINT ( 'NONE',  ( 0.000000000000000000, 0.000000000000000000, 25.45024271654008885 ) ) ;
#249 = AXIS2_PLACEMENT_3D ( 'NONE', #138, #269, #10 ) ;
#250 = CIRCLE ( 'NONE', #78, 19.99999999999999645 ) ;
#251 = SURFACE_SIDE_STYLE ('',( #273 ) ) ;
#252 = VERTEX_POINT ( 'NONE', #196 ) ;
#253 = ORIENTED_EDGE ( 'NONE', *, *, #274, .F. ) ;
#254 = EDGE_LOOP ( 'NONE', ( #233, #132, #124, #232, #192 ) ) ;
#255 = DIRECTION ( 'NONE',  ( 0.000000000000000000, 1.000000000000000000, 0.000000000000000000 ) ) ;
#256 = DIRECTION ( 'NONE',  ( -1.000000000000000000, 0.000000000000000000, 0.000000000000000000 ) ) ;
#257 = AXIS2_PLACEMENT_3D ( 'NONE', #204, #222, #101 ) ;
#258 = EDGE_LOOP ( 'NONE', ( #7, #263, #282, #47 ) ) ;
#259 = PRODUCT_RELATED_PRODUCT_CATEGORY ( 'part', '', ( #1 ) ) ;
#260 = CARTESIAN_POINT ( 'NONE',  ( 0.000000000000000000, 0.000000000000000000, 46.23910826874370628 ) ) ;
#261 = EDGE_CURVE ( 'NONE', #155, #122, #194, .T. ) ;
#262 = DIRECTION ( 'NONE',  ( 0.000000000000000000, 0.000000000000000000, -1.000000000000000000 ) ) ;
#263 = ORIENTED_EDGE ( 'NONE', *, *, #144, .T. ) ;
#264 = DIRECTION ( 'NONE',  ( -1.000000000000000000, 0.000000000000000000, 0.000000000000000000 ) ) ;
#265 = COLOUR_RGB ( '',1.000000000000000000, 1.000000000000000000, 1.000000000000000000 ) ;
#266 = CARTESIAN_POINT ( 'NONE',  ( 0.000000000000000000, 0.000000000000000000, 10.00000000000000000 ) ) ;
#267 = FACE_OUTER_BOUND ( 'NONE', #254, .T. ) ;
#268 = EDGE_CURVE ( 'NONE', #65, #252, #171, .T. ) ;
#269 = DIRECTION ( 'NONE',  ( -1.000000000000000000, 0.000000000000000000, 0.000000000000000000 ) ) ;
#270 = STYLED_ITEM ( 'NONE', ( #140 ), #84 ) ;
#271 = AXIS2_PLACEMENT_3D ( 'NONE', #40, #256, #110 ) ;
#272 = AXIS2_PLACEMENT_3D ( 'NONE', #230, #34, #264 ) ;
#273 = SURFACE_STYLE_FILL_AREA ( #212 ) ;
#274 = EDGE_CURVE ( 'NONE', #65, #74, #71, .T. ) ;
#275 = FILL_AREA_STYLE_COLOUR ( '', #265 ) ;
#276 = ORIENTED_EDGE ( 'NONE', *, *, #81, .F. ) ;
#277 = CARTESIAN_POINT ( 'NONE',  ( 0.000000000000000000, 0.000000000000000000, 0.000000000000000000 ) ) ;
#278 = ORIENTED_EDGE ( 'NONE', *, *, #268, .F. ) ;
#279 = CARTESIAN_POINT ( 'NONE',  ( 0.000000000000000000, 0.000000000000000000, 11.49999999999998224 ) ) ;
#280 = ORIENTED_EDGE ( 'NONE', *, *, #163, .T. ) ;
#281 = CONICAL_SURFACE ( 'NONE', #33, 12.55351156951247482, 0.7853981633974365106 ) ;
#282 = ORIENTED_EDGE ( 'NONE', *, *, #261, .T. ) ;
ENDSEC;
END-ISO-10303-21;
