ISO-10303-21;
HEADER;
FILE_DESCRIPTION (( 'STEP AP214' ),
    '1' );
FILE_NAME ('GLM5-025B-040.STEP',
    '2024-08-09T03:07:00',
    ( 'Windows User' ),
    ( 'P R C' ),
    'SwSTEP 2.0',
    'SolidWorks 2022',
    '' );
FILE_SCHEMA (( 'AUTOMOTIVE_DESIGN' ));
ENDSEC;

DATA;
#1 = AXIS2_PLACEMENT_3D ( 'NONE', #232, #229, #274 ) ;
#2 = DIRECTION ( 'NONE',  ( -1.000000000000000000, 0.000000000000000000, 0.000000000000000000 ) ) ;
#3 = CIRCLE ( 'NONE', #153, 12.69999999999999751 ) ;
#4 = ORIENTED_EDGE ( 'NONE', *, *, #133, .T. ) ;
#5 = CIRCLE ( 'NONE', #111, 146.9000000000000057 ) ;
#6 =( NAMED_UNIT ( * ) SI_UNIT ( $, .STERADIAN. ) SOLID_ANGLE_UNIT ( ) );
#7 = VERTEX_POINT ( 'NONE', #41 ) ;
#8 = UNCERTAINTY_MEASURE_WITH_UNIT (LENGTH_MEASURE( 1.000000000000000082E-05 ), #245, 'distance_accuracy_value', 'NONE');
#9 = DIRECTION ( 'NONE',  ( -0.000000000000000000, -0.000000000000000000, 1.000000000000000000 ) ) ;
#10 = AXIS2_PLACEMENT_3D ( 'NONE', #148, #190, #192 ) ;
#11 = APPLICATION_PROTOCOL_DEFINITION ( 'draft international standard', 'automotive_design', 1998, #22 ) ;
#12 = DIRECTION ( 'NONE',  ( 0.000000000000000000, 0.000000000000000000, -1.000000000000000000 ) ) ;
#13 =( GEOMETRIC_REPRESENTATION_CONTEXT ( 3 ) GLOBAL_UNCERTAINTY_ASSIGNED_CONTEXT ( ( #8 ) ) GLOBAL_UNIT_ASSIGNED_CONTEXT ( ( #245, #72, #110 ) ) REPRESENTATION_CONTEXT ( 'NONE', 'WORKASPACE' ) );
#14 = DIRECTION ( 'NONE',  ( 0.000000000000000000, 1.000000000000000000, 0.000000000000000000 ) ) ;
#15 = CARTESIAN_POINT ( 'NONE',  ( 12.51586243952470490, 1.532751087513251393E-15, 12.38413756047529546 ) ) ;
#16 = PRODUCT_DEFINITION_SHAPE ( 'NONE', 'NONE',  #44 ) ;
#17 = DIRECTION ( 'NONE',  ( 1.000000000000000000, 0.000000000000000000, 0.000000000000000000 ) ) ;
#18 = SURFACE_SIDE_STYLE ('',( #278 ) ) ;
#19 = EDGE_CURVE ( 'NONE', #271, #75, #5, .T. ) ;
#20 = CARTESIAN_POINT ( 'NONE',  ( 0.000000000000000000, 0.000000000000000000, 17.98185442112295362 ) ) ;
#21 = CARTESIAN_POINT ( 'NONE',  ( 12.69999999999999929, 1.555301434917138433E-15, 12.19999999999998863 ) ) ;
#22 = APPLICATION_CONTEXT ( 'automotive_design' ) ;
#23 = CARTESIAN_POINT ( 'NONE',  ( 0.000000000000000000, 0.000000000000000000, 158.7499914588313175 ) ) ;
#24 = EDGE_CURVE ( 'NONE', #186, #105, #204, .T. ) ;
#25 = CARTESIAN_POINT ( 'NONE',  ( 0.000000000000000000, 0.000000000000000000, 20.00000000000000000 ) ) ;
#26 = AXIS2_PLACEMENT_3D ( 'NONE', #261, #227, #35 ) ;
#27 = ORIENTED_EDGE ( 'NONE', *, *, #24, .F. ) ;
#28 = VERTEX_POINT ( 'NONE', #134 ) ;
#29 = COLOUR_RGB ( '',1.000000000000000000, 1.000000000000000000, 1.000000000000000000 ) ;
#30 = ORIENTED_EDGE ( 'NONE', *, *, #208, .T. ) ;
#31 = ORIENTED_EDGE ( 'NONE', *, *, #89, .F. ) ;
#32 = AXIS2_PLACEMENT_3D ( 'NONE', #209, #12, #239 ) ;
#33 = ADVANCED_FACE ( 'NONE', ( #130 ), #135, .T. ) ;
#34 = PRODUCT_CONTEXT ( 'NONE', #22, 'mechanical' ) ;
#35 = DIRECTION ( 'NONE',  ( -1.224646799147352961E-16, -1.000000000000000000, 0.000000000000000000 ) ) ;
#36 = DIRECTION ( 'NONE',  ( -1.000000000000000000, 0.000000000000000000, 0.000000000000000000 ) ) ;
#37 = DIRECTION ( 'NONE',  ( 1.000000000000000000, 0.000000000000000000, 0.000000000000000000 ) ) ;
#38 = UNCERTAINTY_MEASURE_WITH_UNIT (LENGTH_MEASURE( 1.000000000000000082E-05 ), #129, 'distance_accuracy_value', 'NONE');
#39 = CARTESIAN_POINT ( 'NONE',  ( 0.000000000000000000, 0.000000000000000000, 10.00000000000000000 ) ) ;
#40 = FILL_AREA_STYLE ('',( #150 ) ) ;
#41 = CARTESIAN_POINT ( 'NONE',  ( -12.69999999999999751, 0.000000000000000000, 10.00000000000000000 ) ) ;
#42 =( NAMED_UNIT ( * ) PLANE_ANGLE_UNIT ( ) SI_UNIT ( $, .RADIAN. ) );
#43 = DIRECTION ( 'NONE',  ( -1.000000000000000000, 0.000000000000000000, 0.000000000000000000 ) ) ;
#44 = PRODUCT_DEFINITION ( 'Î´Öª', '', #268, #233 ) ;
#45 = CARTESIAN_POINT ( 'NONE',  ( 0.000000000000000000, 0.000000000000000000, 158.7499914588313175 ) ) ;
#46 = EDGE_CURVE ( 'NONE', #28, #144, #173, .T. ) ;
#47 =( NAMED_UNIT ( * ) PLANE_ANGLE_UNIT ( ) SI_UNIT ( $, .RADIAN. ) );
#48 = PRODUCT ( 'GLM5-025B-040', 'GLM5-025B-040', '', ( #34 ) ) ;
#49 = CONICAL_SURFACE ( 'NONE', #219, 12.51586243952470490, 0.7853981633974153054 ) ;
#50 = ORIENTED_EDGE ( 'NONE', *, *, #224, .F. ) ;
#51 = SURFACE_STYLE_FILL_AREA ( #269 ) ;
#52 = EDGE_CURVE ( 'NONE', #102, #75, #136, .T. ) ;
#53 = CYLINDRICAL_SURFACE ( 'NONE', #193, 12.69999999999999929 ) ;
#54 = EDGE_CURVE ( 'NONE', #7, #186, #156, .T. ) ;
#55 = ORIENTED_EDGE ( 'NONE', *, *, #183, .T. ) ;
#56 = ADVANCED_BREP_SHAPE_REPRESENTATION ( 'GLM5-025B-040', ( #198, #1 ), #139 ) ;
#57 = DIRECTION ( 'NONE',  ( 1.000000000000000000, 0.000000000000000000, 0.000000000000000000 ) ) ;
#58 = CARTESIAN_POINT ( 'NONE',  ( -12.51586243952469424, 0.000000000000000000, 12.38413756047529546 ) ) ;
#59 = DIRECTION ( 'NONE',  ( 1.000000000000000000, -0.000000000000000000, 0.000000000000000000 ) ) ;
#60 = DIRECTION ( 'NONE',  ( 0.000000000000000000, 1.000000000000000000, 0.000000000000000000 ) ) ;
#61 = EDGE_LOOP ( 'NONE', ( #272, #30, #55, #273 ) ) ;
#62 = CIRCLE ( 'NONE', #125, 12.51586243952469424 ) ;
#63 = DIRECTION ( 'NONE',  ( 0.7071067811865242581, 8.659560562354648129E-17, -0.7071067811865708874 ) ) ;
#64 = DIRECTION ( 'NONE',  ( -0.000000000000000000, -0.000000000000000000, 1.000000000000000000 ) ) ;
#65 = DIRECTION ( 'NONE',  ( -0.000000000000000000, -0.000000000000000000, 1.000000000000000000 ) ) ;
#66 = SURFACE_STYLE_USAGE ( .BOTH. , #18 ) ;
#67 = EDGE_CURVE ( 'NONE', #98, #175, #62, .T. ) ;
#68 = VECTOR ( 'NONE', #215, 1000.000000000000000 ) ;
#69 = ORIENTED_EDGE ( 'NONE', *, *, #166, .F. ) ;
#70 = DIRECTION ( 'NONE',  ( -0.000000000000000000, -0.000000000000000000, -1.000000000000000000 ) ) ;
#71 = CARTESIAN_POINT ( 'NONE',  ( 12.69999999999999751, 1.555301434917138235E-15, 10.00000000000000000 ) ) ;
#72 =( NAMED_UNIT ( * ) PLANE_ANGLE_UNIT ( ) SI_UNIT ( $, .RADIAN. ) );
#73 = ORIENTED_EDGE ( 'NONE', *, *, #93, .T. ) ;
#74 = AXIS2_PLACEMENT_3D ( 'NONE', #182, #267, #158 ) ;
#75 = VERTEX_POINT ( 'NONE', #258 ) ;
#76 = CIRCLE ( 'NONE', #121, 12.51586243952469424 ) ;
#77 = DIRECTION ( 'NONE',  ( -0.000000000000000000, -0.000000000000000000, 1.000000000000000000 ) ) ;
#78 = APPLICATION_PROTOCOL_DEFINITION ( 'draft international standard', 'automotive_design', 1998, #213 ) ;
#79 = ORIENTED_EDGE ( 'NONE', *, *, #24, .T. ) ;
#80 = DIRECTION ( 'NONE',  ( -1.000000000000000000, 0.000000000000000000, 0.000000000000000000 ) ) ;
#81 = VECTOR ( 'NONE', #63, 1000.000000000000000 ) ;
#82 = EDGE_LOOP ( 'NONE', ( #236, #189, #207, #223, #163 ) ) ;
#83 = UNCERTAINTY_MEASURE_WITH_UNIT (LENGTH_MEASURE( 1.000000000000000082E-05 ), #242, 'distance_accuracy_value', 'NONE');
#84 = EDGE_CURVE ( 'NONE', #144, #7, #3, .T. ) ;
#85 = DIRECTION ( 'NONE',  ( 1.000000000000000000, 0.000000000000000000, 0.000000000000000000 ) ) ;
#86 = AXIS2_PLACEMENT_3D ( 'NONE', #191, #167, #194 ) ;
#87 = EDGE_LOOP ( 'NONE', ( #211, #221, #73, #171 ) ) ;
#88 = DIRECTION ( 'NONE',  ( -1.000000000000000000, 0.000000000000000000, 0.000000000000000000 ) ) ;
#89 = EDGE_CURVE ( 'NONE', #28, #186, #201, .T. ) ;
#90 = CIRCLE ( 'NONE', #97, 12.69999999999999751 ) ;
#91 = DIRECTION ( 'NONE',  ( -1.000000000000000000, 0.000000000000000000, 0.000000000000000000 ) ) ;
#92 = SPHERICAL_SURFACE ( 'NONE', #169, 146.9000000000000057 ) ;
#93 = EDGE_CURVE ( 'NONE', #75, #98, #76, .T. ) ;
#94 = ORIENTED_EDGE ( 'NONE', *, *, #54, .T. ) ;
#95 = SURFACE_STYLE_USAGE ( .BOTH. , #96 ) ;
#96 = SURFACE_SIDE_STYLE ('',( #51 ) ) ;
#97 = AXIS2_PLACEMENT_3D ( 'NONE', #259, #65, #238 ) ;
#98 = VERTEX_POINT ( 'NONE', #251 ) ;
#99 = EDGE_LOOP ( 'NONE', ( #100, #143, #124, #147, #185 ) ) ;
#100 = ORIENTED_EDGE ( 'NONE', *, *, #205, .F. ) ;
#101 = ORIENTED_EDGE ( 'NONE', *, *, #205, .T. ) ;
#102 = VERTEX_POINT ( 'NONE', #58 ) ;
#103 = PRESENTATION_STYLE_ASSIGNMENT (( #66 ) ) ;
#104 = ADVANCED_FACE ( 'NONE', ( #270 ), #49, .T. ) ;
#105 = VERTEX_POINT ( 'NONE', #71 ) ;
#106 = ORIENTED_EDGE ( 'NONE', *, *, #281, .F. ) ;
#107 = CARTESIAN_POINT ( 'NONE',  ( 0.000000000000000000, 0.000000000000000000, 12.38413756047529546 ) ) ;
#108 = MECHANICAL_DESIGN_GEOMETRIC_PRESENTATION_REPRESENTATION (  '', ( #222 ), #13 ) ;
#109 = DIRECTION ( 'NONE',  ( 0.000000000000000000, 0.000000000000000000, -1.000000000000000000 ) ) ;
#110 =( NAMED_UNIT ( * ) SI_UNIT ( $, .STERADIAN. ) SOLID_ANGLE_UNIT ( ) );
#111 = AXIS2_PLACEMENT_3D ( 'NONE', #149, #168, #234 ) ;
#112 = CARTESIAN_POINT ( 'NONE',  ( 0.000000000000000000, 0.000000000000000000, 10.00000000000000000 ) ) ;
#113 =( NAMED_UNIT ( * ) SI_UNIT ( $, .STERADIAN. ) SOLID_ANGLE_UNIT ( ) );
#114 = PRESENTATION_LAYER_ASSIGNMENT (  '', '', ( #226 ) ) ;
#115 = DIRECTION ( 'NONE',  ( 0.000000000000000000, 1.000000000000000000, 0.000000000000000000 ) ) ;
#116 = ADVANCED_FACE ( 'NONE', ( #246 ), #53, .T. ) ;
#117 = DIRECTION ( 'NONE',  ( 1.000000000000000000, 0.000000000000000000, 0.000000000000000000 ) ) ;
#118 = VECTOR ( 'NONE', #264, 1000.000000000000000 ) ;
#119 = CYLINDRICAL_SURFACE ( 'NONE', #249, 12.69999999999999929 ) ;
#120 = DIRECTION ( 'NONE',  ( -0.000000000000000000, -0.000000000000000000, -1.000000000000000000 ) ) ;
#121 = AXIS2_PLACEMENT_3D ( 'NONE', #188, #276, #206 ) ;
#122 = ORIENTED_EDGE ( 'NONE', *, *, #84, .F. ) ;
#123 = ADVANCED_FACE ( 'NONE', ( #263 ), #131, .T. ) ;
#124 = ORIENTED_EDGE ( 'NONE', *, *, #52, .F. ) ;
#125 = AXIS2_PLACEMENT_3D ( 'NONE', #237, #127, #17 ) ;
#126 = EDGE_LOOP ( 'NONE', ( #231, #247, #151, #122 ) ) ;
#127 = DIRECTION ( 'NONE',  ( -0.000000000000000000, -0.000000000000000000, 1.000000000000000000 ) ) ;
#128 = ADVANCED_FACE ( 'NONE', ( #170 ), #142, .T. ) ;
#129 =( LENGTH_UNIT ( ) NAMED_UNIT ( * ) SI_UNIT ( .MILLI., .METRE. ) );
#130 = FACE_OUTER_BOUND ( 'NONE', #255, .T. ) ;
#131 = SPHERICAL_SURFACE ( 'NONE', #220, 15.00000000000000000 ) ;
#132 = CIRCLE ( 'NONE', #248, 146.9000000000000057 ) ;
#133 = EDGE_CURVE ( 'NONE', #195, #200, #210, .T. ) ;
#134 = CARTESIAN_POINT ( 'NONE',  ( 0.000000000000000000, 9.184850993605147944E-16, 2.981854421122954957 ) ) ;
#135 = SPHERICAL_SURFACE ( 'NONE', #180, 15.00000000000000000 ) ;
#136 = CIRCLE ( 'NONE', #86, 12.51586243952469424 ) ;
#137 = CARTESIAN_POINT ( 'NONE',  ( 0.000000000000000000, 0.000000000000000000, 17.98185442112295362 ) ) ;
#138 = DIRECTION ( 'NONE',  ( 0.000000000000000000, 1.000000000000000000, 0.000000000000000000 ) ) ;
#139 =( GEOMETRIC_REPRESENTATION_CONTEXT ( 3 ) GLOBAL_UNCERTAINTY_ASSIGNED_CONTEXT ( ( #83 ) ) GLOBAL_UNIT_ASSIGNED_CONTEXT ( ( #242, #47, #6 ) ) REPRESENTATION_CONTEXT ( 'NONE', 'WORKASPACE' ) );
#140 = LINE ( 'NONE', #178, #240 ) ;
#141 = ORIENTED_EDGE ( 'NONE', *, *, #217, .T. ) ;
#142 = CONICAL_SURFACE ( 'NONE', #10, 12.51586243952470490, 0.7853981633974153054 ) ;
#143 = ORIENTED_EDGE ( 'NONE', *, *, #93, .F. ) ;
#144 = VERTEX_POINT ( 'NONE', #262 ) ;
#145 = AXIS2_PLACEMENT_3D ( 'NONE', #45, #2, #138 ) ;
#146 = CARTESIAN_POINT ( 'NONE',  ( 0.000000000000000000, 0.000000000000000000, 12.38413756047529546 ) ) ;
#147 = ORIENTED_EDGE ( 'NONE', *, *, #161, .T. ) ;
#148 = CARTESIAN_POINT ( 'NONE',  ( 0.000000000000000000, 0.000000000000000000, 12.38413756047529546 ) ) ;
#149 = CARTESIAN_POINT ( 'NONE',  ( 0.000000000000000000, 0.000000000000000000, 158.7499914588313175 ) ) ;
#150 = FILL_AREA_STYLE_COLOUR ( '', #202 ) ;
#151 = ORIENTED_EDGE ( 'NONE', *, *, #54, .F. ) ;
#152 = LINE ( 'NONE', #176, #68 ) ;
#153 = AXIS2_PLACEMENT_3D ( 'NONE', #250, #64, #57 ) ;
#154 = CARTESIAN_POINT ( 'NONE',  ( 12.69999999999999929, 1.555301434917138433E-15, 20.00000000000000000 ) ) ;
#155 = SPHERICAL_SURFACE ( 'NONE', #145, 146.9000000000000057 ) ;
#156 = CIRCLE ( 'NONE', #165, 12.69999999999999751 ) ;
#157 = PRODUCT_RELATED_PRODUCT_CATEGORY ( 'part', '', ( #48 ) ) ;
#158 = DIRECTION ( 'NONE',  ( 1.000000000000000000, 0.000000000000000000, 0.000000000000000000 ) ) ;
#159 = ORIENTED_EDGE ( 'NONE', *, *, #161, .F. ) ;
#160 = FACE_OUTER_BOUND ( 'NONE', #162, .T. ) ;
#161 = EDGE_CURVE ( 'NONE', #102, #200, #152, .T. ) ;
#162 = EDGE_LOOP ( 'NONE', ( #106, #4, #141, #94, #79 ) ) ;
#163 = ORIENTED_EDGE ( 'NONE', *, *, #217, .F. ) ;
#164 = EDGE_LOOP ( 'NONE', ( #212, #101, #50, #159, #181 ) ) ;
#165 = AXIS2_PLACEMENT_3D ( 'NONE', #112, #279, #85 ) ;
#166 = EDGE_CURVE ( 'NONE', #105, #144, #90, .T. ) ;
#167 = DIRECTION ( 'NONE',  ( -0.000000000000000000, -0.000000000000000000, 1.000000000000000000 ) ) ;
#168 = DIRECTION ( 'NONE',  ( -1.000000000000000000, 1.224646799147353207E-16, 0.000000000000000000 ) ) ;
#169 = AXIS2_PLACEMENT_3D ( 'NONE', #23, #91, #115 ) ;
#170 = FACE_OUTER_BOUND ( 'NONE', #99, .T. ) ;
#171 = ORIENTED_EDGE ( 'NONE', *, *, #67, .T. ) ;
#172 = LINE ( 'NONE', #15, #81 ) ;
#173 = CIRCLE ( 'NONE', #216, 15.00000000000000000 ) ;
#174 = CARTESIAN_POINT ( 'NONE',  ( 0.000000000000000000, 0.000000000000000000, 20.00000000000000000 ) ) ;
#175 = VERTEX_POINT ( 'NONE', #235 ) ;
#176 = CARTESIAN_POINT ( 'NONE',  ( -12.51586243952470490, 0.000000000000000000, 12.38413756047529546 ) ) ;
#177 = DIRECTION ( 'NONE',  ( 1.000000000000000000, 0.000000000000000000, 0.000000000000000000 ) ) ;
#178 = CARTESIAN_POINT ( 'NONE',  ( -12.69999999999999929, 0.000000000000000000, 20.00000000000000000 ) ) ;
#179 = FACE_OUTER_BOUND ( 'NONE', #87, .T. ) ;
#180 = AXIS2_PLACEMENT_3D ( 'NONE', #20, #80, #14 ) ;
#181 = ORIENTED_EDGE ( 'NONE', *, *, #183, .F. ) ;
#182 = CARTESIAN_POINT ( 'NONE',  ( 0.000000000000000000, 0.000000000000000000, 12.19999999999998863 ) ) ;
#183 = EDGE_CURVE ( 'NONE', #175, #102, #225, .T. ) ;
#184 = PRESENTATION_STYLE_ASSIGNMENT (( #95 ) ) ;
#185 = ORIENTED_EDGE ( 'NONE', *, *, #133, .F. ) ;
#186 = VERTEX_POINT ( 'NONE', #256 ) ;
#187 = CLOSED_SHELL ( 'NONE', ( #104, #275, #123, #116, #253, #33, #260, #128 ) ) ;
#188 = CARTESIAN_POINT ( 'NONE',  ( 0.000000000000000000, 0.000000000000000000, 12.38413756047529546 ) ) ;
#189 = ORIENTED_EDGE ( 'NONE', *, *, #281, .T. ) ;
#190 = DIRECTION ( 'NONE',  ( 0.000000000000000000, 0.000000000000000000, -1.000000000000000000 ) ) ;
#191 = CARTESIAN_POINT ( 'NONE',  ( 0.000000000000000000, 0.000000000000000000, 12.38413756047529546 ) ) ;
#192 = DIRECTION ( 'NONE',  ( -1.000000000000000000, 0.000000000000000000, 0.000000000000000000 ) ) ;
#193 = AXIS2_PLACEMENT_3D ( 'NONE', #174, #282, #88 ) ;
#194 = DIRECTION ( 'NONE',  ( 1.000000000000000000, 0.000000000000000000, 0.000000000000000000 ) ) ;
#195 = VERTEX_POINT ( 'NONE', #21 ) ;
#196 = PRESENTATION_LAYER_ASSIGNMENT (  '', '', ( #222 ) ) ;
#197 = DIRECTION ( 'NONE',  ( -1.000000000000000000, 0.000000000000000000, 0.000000000000000000 ) ) ;
#198 = MANIFOLD_SOLID_BREP ( 'µ¹½Ç1', #187 ) ;
#199 = CARTESIAN_POINT ( 'NONE',  ( 0.000000000000000000, 8.995030739737310516E-15, 11.84999145883131000 ) ) ;
#200 = VERTEX_POINT ( 'NONE', #254 ) ;
#201 = CIRCLE ( 'NONE', #26, 15.00000000000000000 ) ;
#202 = COLOUR_RGB ( '',1.000000000000000000, 1.000000000000000000, 1.000000000000000000 ) ;
#203 = FILL_AREA_STYLE_COLOUR ( '', #29 ) ;
#204 = CIRCLE ( 'NONE', #266, 12.69999999999999751 ) ;
#205 = EDGE_CURVE ( 'NONE', #98, #195, #172, .T. ) ;
#206 = DIRECTION ( 'NONE',  ( 1.000000000000000000, 0.000000000000000000, 0.000000000000000000 ) ) ;
#207 = ORIENTED_EDGE ( 'NONE', *, *, #166, .T. ) ;
#208 = EDGE_CURVE ( 'NONE', #271, #175, #132, .T. ) ;
#209 = CARTESIAN_POINT ( 'NONE',  ( 0.000000000000000000, 0.000000000000000000, 12.19999999999998863 ) ) ;
#210 = CIRCLE ( 'NONE', #32, 12.69999999999999929 ) ;
#211 = ORIENTED_EDGE ( 'NONE', *, *, #208, .F. ) ;
#212 = ORIENTED_EDGE ( 'NONE', *, *, #67, .F. ) ;
#213 = APPLICATION_CONTEXT ( 'automotive_design' ) ;
#214 = CARTESIAN_POINT ( 'NONE',  ( 0.000000000000000000, 0.000000000000000000, 17.98185442112295362 ) ) ;
#215 = DIRECTION ( 'NONE',  ( -0.7071067811865242581, 0.000000000000000000, -0.7071067811865708874 ) ) ;
#216 = AXIS2_PLACEMENT_3D ( 'NONE', #214, #59, #109 ) ;
#217 = EDGE_CURVE ( 'NONE', #200, #7, #140, .T. ) ;
#218 = DIRECTION ( 'NONE',  ( 0.000000000000000000, 0.000000000000000000, -1.000000000000000000 ) ) ;
#219 = AXIS2_PLACEMENT_3D ( 'NONE', #146, #228, #36 ) ;
#220 = AXIS2_PLACEMENT_3D ( 'NONE', #137, #43, #60 ) ;
#221 = ORIENTED_EDGE ( 'NONE', *, *, #19, .T. ) ;
#222 = STYLED_ITEM ( 'NONE', ( #184 ), #56 ) ;
#223 = ORIENTED_EDGE ( 'NONE', *, *, #84, .T. ) ;
#224 = EDGE_CURVE ( 'NONE', #200, #195, #243, .T. ) ;
#225 = CIRCLE ( 'NONE', #257, 12.51586243952469424 ) ;
#226 = STYLED_ITEM ( 'NONE', ( #103 ), #198 ) ;
#227 = DIRECTION ( 'NONE',  ( -1.000000000000000000, 1.224646799147353207E-16, 0.000000000000000000 ) ) ;
#228 = DIRECTION ( 'NONE',  ( 0.000000000000000000, 0.000000000000000000, -1.000000000000000000 ) ) ;
#229 = DIRECTION ( 'NONE',  ( 0.000000000000000000, 0.000000000000000000, 1.000000000000000000 ) ) ;
#230 = ORIENTED_EDGE ( 'NONE', *, *, #46, .T. ) ;
#231 = ORIENTED_EDGE ( 'NONE', *, *, #46, .F. ) ;
#232 = CARTESIAN_POINT ( 'NONE',  ( 0.000000000000000000, 0.000000000000000000, 0.000000000000000000 ) ) ;
#233 = PRODUCT_DEFINITION_CONTEXT ( 'detailed design', #213, 'design' ) ;
#234 = DIRECTION ( 'NONE',  ( -1.224646799147353207E-16, -1.000000000000000000, 0.000000000000000000 ) ) ;
#235 = CARTESIAN_POINT ( 'NONE',  ( 0.000000000000000000, 12.51586243952461786, 12.38413756047530789 ) ) ;
#236 = ORIENTED_EDGE ( 'NONE', *, *, #224, .T. ) ;
#237 = CARTESIAN_POINT ( 'NONE',  ( 0.000000000000000000, 0.000000000000000000, 12.38413756047529546 ) ) ;
#238 = DIRECTION ( 'NONE',  ( 1.000000000000000000, 0.000000000000000000, 0.000000000000000000 ) ) ;
#239 = DIRECTION ( 'NONE',  ( 1.000000000000000000, 0.000000000000000000, 0.000000000000000000 ) ) ;
#240 = VECTOR ( 'NONE', #120, 1000.000000000000000 ) ;
#241 = LINE ( 'NONE', #154, #118 ) ;
#242 =( LENGTH_UNIT ( ) NAMED_UNIT ( * ) SI_UNIT ( .MILLI., .METRE. ) );
#243 = CIRCLE ( 'NONE', #74, 12.69999999999999929 ) ;
#244 = FACE_OUTER_BOUND ( 'NONE', #61, .T. ) ;
#245 =( LENGTH_UNIT ( ) NAMED_UNIT ( * ) SI_UNIT ( .MILLI., .METRE. ) );
#246 = FACE_OUTER_BOUND ( 'NONE', #82, .T. ) ;
#247 = ORIENTED_EDGE ( 'NONE', *, *, #89, .T. ) ;
#248 = AXIS2_PLACEMENT_3D ( 'NONE', #280, #117, #218 ) ;
#249 = AXIS2_PLACEMENT_3D ( 'NONE', #25, #70, #197 ) ;
#250 = CARTESIAN_POINT ( 'NONE',  ( 0.000000000000000000, 0.000000000000000000, 10.00000000000000000 ) ) ;
#251 = CARTESIAN_POINT ( 'NONE',  ( 12.51586243952469424, 1.544026261215194124E-15, 12.38413756047529546 ) ) ;
#252 = SHAPE_DEFINITION_REPRESENTATION ( #16, #56 ) ;
#253 = ADVANCED_FACE ( 'NONE', ( #160 ), #119, .T. ) ;
#254 = CARTESIAN_POINT ( 'NONE',  ( -12.69999999999999929, 0.000000000000000000, 12.19999999999998863 ) ) ;
#255 = EDGE_LOOP ( 'NONE', ( #31, #230, #69, #27 ) ) ;
#256 = CARTESIAN_POINT ( 'NONE',  ( -1.555301434917138038E-15, -12.69999999999999751, 10.00000000000000178 ) ) ;
#257 = AXIS2_PLACEMENT_3D ( 'NONE', #107, #9, #177 ) ;
#258 = CARTESIAN_POINT ( 'NONE',  ( -1.532751087513240349E-15, -12.51586243952461786, 12.38413756047530789 ) ) ;
#259 = CARTESIAN_POINT ( 'NONE',  ( 0.000000000000000000, 0.000000000000000000, 10.00000000000000000 ) ) ;
#260 = ADVANCED_FACE ( 'NONE', ( #244 ), #92, .F. ) ;
#261 = CARTESIAN_POINT ( 'NONE',  ( 0.000000000000000000, 0.000000000000000000, 17.98185442112295362 ) ) ;
#262 = CARTESIAN_POINT ( 'NONE',  ( 0.000000000000000000, 12.69999999999999751, 10.00000000000000178 ) ) ;
#263 = FACE_OUTER_BOUND ( 'NONE', #126, .T. ) ;
#264 = DIRECTION ( 'NONE',  ( -0.000000000000000000, -0.000000000000000000, -1.000000000000000000 ) ) ;
#265 =( GEOMETRIC_REPRESENTATION_CONTEXT ( 3 ) GLOBAL_UNCERTAINTY_ASSIGNED_CONTEXT ( ( #38 ) ) GLOBAL_UNIT_ASSIGNED_CONTEXT ( ( #129, #42, #113 ) ) REPRESENTATION_CONTEXT ( 'NONE', 'WORKASPACE' ) );
#266 = AXIS2_PLACEMENT_3D ( 'NONE', #39, #77, #37 ) ;
#267 = DIRECTION ( 'NONE',  ( 0.000000000000000000, 0.000000000000000000, -1.000000000000000000 ) ) ;
#268 = PRODUCT_DEFINITION_FORMATION_WITH_SPECIFIED_SOURCE ( 'ÈÎºÎ', '', #48, .NOT_KNOWN. ) ;
#269 = FILL_AREA_STYLE ('',( #203 ) ) ;
#270 = FACE_OUTER_BOUND ( 'NONE', #164, .T. ) ;
#271 = VERTEX_POINT ( 'NONE', #199 ) ;
#272 = ORIENTED_EDGE ( 'NONE', *, *, #19, .F. ) ;
#273 = ORIENTED_EDGE ( 'NONE', *, *, #52, .T. ) ;
#274 = DIRECTION ( 'NONE',  ( 1.000000000000000000, 0.000000000000000000, 0.000000000000000000 ) ) ;
#275 = ADVANCED_FACE ( 'NONE', ( #179 ), #155, .F. ) ;
#276 = DIRECTION ( 'NONE',  ( -0.000000000000000000, -0.000000000000000000, 1.000000000000000000 ) ) ;
#277 = MECHANICAL_DESIGN_GEOMETRIC_PRESENTATION_REPRESENTATION (  '', ( #226 ), #265 ) ;
#278 = SURFACE_STYLE_FILL_AREA ( #40 ) ;
#279 = DIRECTION ( 'NONE',  ( -0.000000000000000000, -0.000000000000000000, 1.000000000000000000 ) ) ;
#280 = CARTESIAN_POINT ( 'NONE',  ( 0.000000000000000000, 0.000000000000000000, 158.7499914588313175 ) ) ;
#281 = EDGE_CURVE ( 'NONE', #195, #105, #241, .T. ) ;
#282 = DIRECTION ( 'NONE',  ( -0.000000000000000000, -0.000000000000000000, -1.000000000000000000 ) ) ;
ENDSEC;
END-ISO-10303-21;
