ISO-10303-21;
HEADER;
FILE_DESCRIPTION (( 'STEP AP214' ),
    '1' );
FILE_NAME ('GLM5-012B-020.STEP',
    '2024-08-09T03:03:08',
    ( 'Windows User' ),
    ( 'P R C' ),
    'SwSTEP 2.0',
    'SolidWorks 2022',
    '' );
FILE_SCHEMA (( 'AUTOMOTIVE_DESIGN' ));
ENDSEC;

DATA;
#1 =( LENGTH_UNIT ( ) NAMED_UNIT ( * ) SI_UNIT ( .MILLI., .METRE. ) );
#2 = PRESENTATION_STYLE_ASSIGNMENT (( #40 ) ) ;
#3 = EDGE_LOOP ( 'NONE', ( #92, #9, #180, #238, #32 ) ) ;
#4 = ADVANCED_FACE ( 'NONE', ( #13 ), #37, .T. ) ;
#5 = CARTESIAN_POINT ( 'NONE',  ( 6.165966899419030867, 7.551131627022044559E-16, 5.384033100580984055 ) ) ;
#6 = ORIENTED_EDGE ( 'NONE', *, *, #211, .F. ) ;
#7 = ADVANCED_FACE ( 'NONE', ( #248 ), #20, .T. ) ;
#8 = DIRECTION ( 'NONE',  ( 0.7071067811865642261, 8.659560562355136236E-17, -0.7071067811865308084 ) ) ;
#9 = ORIENTED_EDGE ( 'NONE', *, *, #255, .T. ) ;
#10 = CARTESIAN_POINT ( 'NONE',  ( 0.000000000000000000, 0.000000000000000000, 7.990927210561475924 ) ) ;
#11 = CIRCLE ( 'NONE', #164, 6.349999999999999645 ) ;
#12 = CIRCLE ( 'NONE', #54, 6.349999999999999645 ) ;
#13 = FACE_OUTER_BOUND ( 'NONE', #221, .T. ) ;
#14 = DIRECTION ( 'NONE',  ( 0.000000000000000000, 1.000000000000000000, 0.000000000000000000 ) ) ;
#15 = VERTEX_POINT ( 'NONE', #160 ) ;
#16 = DIRECTION ( 'NONE',  ( -0.000000000000000000, -0.000000000000000000, 1.000000000000000000 ) ) ;
#17 = DIRECTION ( 'NONE',  ( -0.000000000000000000, -0.000000000000000000, 1.000000000000000000 ) ) ;
#18 = CARTESIAN_POINT ( 'NONE',  ( -6.349999999999998757, 0.000000000000000000, 4.000000000000000000 ) ) ;
#19 =( NAMED_UNIT ( * ) SI_UNIT ( $, .STERADIAN. ) SOLID_ANGLE_UNIT ( ) );
#20 = CONICAL_SURFACE ( 'NONE', #44, 6.165966899419030867, 0.7853981633974718157 ) ;
#21 = STYLED_ITEM ( 'NONE', ( #253 ), #280 ) ;
#22 = SHAPE_DEFINITION_REPRESENTATION ( #83, #258 ) ;
#23 = DIRECTION ( 'NONE',  ( -0.000000000000000000, -0.000000000000000000, -1.000000000000000000 ) ) ;
#24 = ORIENTED_EDGE ( 'NONE', *, *, #172, .T. ) ;
#25 = AXIS2_PLACEMENT_3D ( 'NONE', #214, #237, #45 ) ;
#26 = DIRECTION ( 'NONE',  ( 1.000000000000000000, -0.000000000000000000, 0.000000000000000000 ) ) ;
#27 = ORIENTED_EDGE ( 'NONE', *, *, #106, .T. ) ;
#28 = DIRECTION ( 'NONE',  ( 1.000000000000000000, 0.000000000000000000, 0.000000000000000000 ) ) ;
#29 = VERTEX_POINT ( 'NONE', #244 ) ;
#30 = ADVANCED_FACE ( 'NONE', ( #247 ), #56, .F. ) ;
#31 = DIRECTION ( 'NONE',  ( 0.000000000000000000, 0.000000000000000000, -1.000000000000000000 ) ) ;
#32 = ORIENTED_EDGE ( 'NONE', *, *, #196, .F. ) ;
#33 = AXIS2_PLACEMENT_3D ( 'NONE', #99, #162, #208 ) ;
#34 = CARTESIAN_POINT ( 'NONE',  ( 0.000000000000000000, 0.000000000000000000, 5.384033100581012476 ) ) ;
#35 = DIRECTION ( 'NONE',  ( -1.000000000000000000, 0.000000000000000000, 0.000000000000000000 ) ) ;
#36 = ORIENTED_EDGE ( 'NONE', *, *, #43, .T. ) ;
#37 = SPHERICAL_SURFACE ( 'NONE', #33, 7.500000000000000888 ) ;
#38 = DIRECTION ( 'NONE',  ( 1.000000000000000000, 0.000000000000000000, 0.000000000000000000 ) ) ;
#39 = UNCERTAINTY_MEASURE_WITH_UNIT (LENGTH_MEASURE( 1.000000000000000082E-05 ), #128, 'distance_accuracy_value', 'NONE');
#40 = SURFACE_STYLE_USAGE ( .BOTH. , #108 ) ;
#41 = AXIS2_PLACEMENT_3D ( 'NONE', #143, #17, #104 ) ;
#42 = CIRCLE ( 'NONE', #264, 6.165966899419028202 ) ;
#43 = EDGE_CURVE ( 'NONE', #121, #174, #69, .T. ) ;
#44 = AXIS2_PLACEMENT_3D ( 'NONE', #185, #273, #274 ) ;
#45 = DIRECTION ( 'NONE',  ( 0.000000000000000000, 1.000000000000000000, 0.000000000000000000 ) ) ;
#46 =( GEOMETRIC_REPRESENTATION_CONTEXT ( 3 ) GLOBAL_UNCERTAINTY_ASSIGNED_CONTEXT ( ( #39 ) ) GLOBAL_UNIT_ASSIGNED_CONTEXT ( ( #128, #259, #88 ) ) REPRESENTATION_CONTEXT ( 'NONE', 'WORKASPACE' ) );
#47 = CARTESIAN_POINT ( 'NONE',  ( -6.349999999999999645, 0.000000000000000000, 5.200000000000024158 ) ) ;
#48 = EDGE_LOOP ( 'NONE', ( #261, #135, #71, #111 ) ) ;
#49 = DIRECTION ( 'NONE',  ( 0.000000000000000000, 0.000000000000000000, -1.000000000000000000 ) ) ;
#50 = ORIENTED_EDGE ( 'NONE', *, *, #142, .T. ) ;
#51 = DIRECTION ( 'NONE',  ( -0.000000000000000000, -0.000000000000000000, -1.000000000000000000 ) ) ;
#52 = VERTEX_POINT ( 'NONE', #80 ) ;
#53 = EDGE_CURVE ( 'NONE', #118, #29, #105, .T. ) ;
#54 = AXIS2_PLACEMENT_3D ( 'NONE', #123, #166, #82 ) ;
#55 = FACE_OUTER_BOUND ( 'NONE', #90, .T. ) ;
#56 = SPHERICAL_SURFACE ( 'NONE', #191, 72.40000000000000568 ) ;
#57 = CARTESIAN_POINT ( 'NONE',  ( 0.000000000000000000, 0.000000000000000000, 4.000000000000000000 ) ) ;
#58 = VECTOR ( 'NONE', #232, 1000.000000000000114 ) ;
#59 = PRODUCT_DEFINITION_CONTEXT ( 'detailed design', #102, 'design' ) ;
#60 = DIRECTION ( 'NONE',  ( 0.000000000000000000, 0.000000000000000000, -1.000000000000000000 ) ) ;
#61 = PRODUCT_DEFINITION_FORMATION_WITH_SPECIFIED_SOURCE ( 'ÈÎºÎ', '', #117, .NOT_KNOWN. ) ;
#62 = CARTESIAN_POINT ( 'NONE',  ( 0.000000000000000000, 0.000000000000000000, 5.200000000000024158 ) ) ;
#63 = CARTESIAN_POINT ( 'NONE',  ( 0.000000000000000000, 4.433221412913419147E-15, 5.120992089682182780 ) ) ;
#64 = DIRECTION ( 'NONE',  ( 1.000000000000000000, 0.000000000000000000, 0.000000000000000000 ) ) ;
#65 = SURFACE_STYLE_USAGE ( .BOTH. , #87 ) ;
#66 = PRODUCT_RELATED_PRODUCT_CATEGORY ( 'part', '', ( #117 ) ) ;
#67 = ORIENTED_EDGE ( 'NONE', *, *, #53, .T. ) ;
#68 = CIRCLE ( 'NONE', #225, 6.349999999999998757 ) ;
#69 = CIRCLE ( 'NONE', #226, 6.349999999999998757 ) ;
#70 = CARTESIAN_POINT ( 'NONE',  ( 0.000000000000000000, 0.000000000000000000, 77.52099208968219557 ) ) ;
#71 = ORIENTED_EDGE ( 'NONE', *, *, #125, .T. ) ;
#72 = COLOUR_RGB ( '',1.000000000000000000, 1.000000000000000000, 1.000000000000000000 ) ;
#73 = DIRECTION ( 'NONE',  ( 1.000000000000000000, 0.000000000000000000, 0.000000000000000000 ) ) ;
#74 = VERTEX_POINT ( 'NONE', #183 ) ;
#75 = CARTESIAN_POINT ( 'NONE',  ( 0.000000000000000000, 0.000000000000000000, 5.384033100581012476 ) ) ;
#76 = ORIENTED_EDGE ( 'NONE', *, *, #53, .F. ) ;
#77 = CARTESIAN_POINT ( 'NONE',  ( 0.000000000000000000, 0.000000000000000000, 5.384033100580984055 ) ) ;
#78 = CYLINDRICAL_SURFACE ( 'NONE', #96, 6.349999999999999645 ) ;
#79 = CIRCLE ( 'NONE', #246, 72.40000000000000568 ) ;
#80 = CARTESIAN_POINT ( 'NONE',  ( -7.551131627022271356E-16, -6.165966899419214720, 5.384033100581012476 ) ) ;
#81 = CARTESIAN_POINT ( 'NONE',  ( -6.165966899419028202, 0.000000000000000000, 5.384033100581012476 ) ) ;
#82 = DIRECTION ( 'NONE',  ( 1.000000000000000000, 0.000000000000000000, 0.000000000000000000 ) ) ;
#83 = PRODUCT_DEFINITION_SHAPE ( 'NONE', 'NONE',  #260 ) ;
#84 = AXIS2_PLACEMENT_3D ( 'NONE', #147, #213, #64 ) ;
#85 =( NAMED_UNIT ( * ) SI_UNIT ( $, .STERADIAN. ) SOLID_ANGLE_UNIT ( ) );
#86 = ADVANCED_FACE ( 'NONE', ( #275 ), #156, .T. ) ;
#87 = SURFACE_SIDE_STYLE ('',( #130 ) ) ;
#88 =( NAMED_UNIT ( * ) SI_UNIT ( $, .STERADIAN. ) SOLID_ANGLE_UNIT ( ) );
#89 = DIRECTION ( 'NONE',  ( -1.000000000000000000, 0.000000000000000000, 0.000000000000000000 ) ) ;
#90 = EDGE_LOOP ( 'NONE', ( #97, #155, #131, #50, #36 ) ) ;
#91 = DIRECTION ( 'NONE',  ( -0.000000000000000000, -0.000000000000000000, 1.000000000000000000 ) ) ;
#92 = ORIENTED_EDGE ( 'NONE', *, *, #169, .T. ) ;
#93 = CIRCLE ( 'NONE', #168, 72.40000000000000568 ) ;
#94 = DIRECTION ( 'NONE',  ( -1.000000000000000000, 1.224646799147353207E-16, 0.000000000000000000 ) ) ;
#95 = FACE_OUTER_BOUND ( 'NONE', #48, .T. ) ;
#96 = AXIS2_PLACEMENT_3D ( 'NONE', #138, #228, #35 ) ;
#97 = ORIENTED_EDGE ( 'NONE', *, *, #255, .F. ) ;
#98 = ADVANCED_FACE ( 'NONE', ( #55 ), #78, .T. ) ;
#99 = CARTESIAN_POINT ( 'NONE',  ( 0.000000000000000000, 0.000000000000000000, 7.990927210561475924 ) ) ;
#100 = VECTOR ( 'NONE', #134, 1000.000000000000000 ) ;
#101 = EDGE_LOOP ( 'NONE', ( #136, #153, #114, #27, #239 ) ) ;
#102 = APPLICATION_CONTEXT ( 'automotive_design' ) ;
#103 = ORIENTED_EDGE ( 'NONE', *, *, #169, .F. ) ;
#104 = DIRECTION ( 'NONE',  ( 1.000000000000000000, 0.000000000000000000, 0.000000000000000000 ) ) ;
#105 = CIRCLE ( 'NONE', #265, 6.165966899419028202 ) ;
#106 = EDGE_CURVE ( 'NONE', #122, #271, #120, .T. ) ;
#107 = MECHANICAL_DESIGN_GEOMETRIC_PRESENTATION_REPRESENTATION (  '', ( #205 ), #254 ) ;
#108 = SURFACE_SIDE_STYLE ('',( #282 ) ) ;
#109 = SPHERICAL_SURFACE ( 'NONE', #25, 7.500000000000000888 ) ;
#110 = CYLINDRICAL_SURFACE ( 'NONE', #113, 6.349999999999999645 ) ;
#111 = ORIENTED_EDGE ( 'NONE', *, *, #184, .T. ) ;
#112 = DIRECTION ( 'NONE',  ( 1.000000000000000000, 0.000000000000000000, 0.000000000000000000 ) ) ;
#113 = AXIS2_PLACEMENT_3D ( 'NONE', #199, #51, #177 ) ;
#114 = ORIENTED_EDGE ( 'NONE', *, *, #184, .F. ) ;
#115 = CIRCLE ( 'NONE', #41, 6.349999999999998757 ) ;
#116 = ORIENTED_EDGE ( 'NONE', *, *, #151, .F. ) ;
#117 = PRODUCT ( 'GLM5-012B-020', 'GLM5-012B-020', '', ( #170 ) ) ;
#118 = VERTEX_POINT ( 'NONE', #192 ) ;
#119 =( GEOMETRIC_REPRESENTATION_CONTEXT ( 3 ) GLOBAL_UNCERTAINTY_ASSIGNED_CONTEXT ( ( #140 ) ) GLOBAL_UNIT_ASSIGNED_CONTEXT ( ( #127, #193, #19 ) ) REPRESENTATION_CONTEXT ( 'NONE', 'WORKASPACE' ) );
#120 = LINE ( 'NONE', #165, #58 ) ;
#121 = VERTEX_POINT ( 'NONE', #126 ) ;
#122 = VERTEX_POINT ( 'NONE', #81 ) ;
#123 = CARTESIAN_POINT ( 'NONE',  ( 0.000000000000000000, 0.000000000000000000, 5.200000000000024158 ) ) ;
#124 = AXIS2_PLACEMENT_3D ( 'NONE', #154, #89, #217 ) ;
#125 = EDGE_CURVE ( 'NONE', #29, #122, #249, .T. ) ;
#126 = CARTESIAN_POINT ( 'NONE',  ( -7.776507174585692163E-16, -6.349999999999999645, 4.000000000000000000 ) ) ;
#127 =( LENGTH_UNIT ( ) NAMED_UNIT ( * ) SI_UNIT ( .MILLI., .METRE. ) );
#128 =( LENGTH_UNIT ( ) NAMED_UNIT ( * ) SI_UNIT ( .MILLI., .METRE. ) );
#129 = AXIS2_PLACEMENT_3D ( 'NONE', #281, #250, #167 ) ;
#130 = SURFACE_STYLE_FILL_AREA ( #236 ) ;
#131 = ORIENTED_EDGE ( 'NONE', *, *, #196, .T. ) ;
#132 = EDGE_CURVE ( 'NONE', #74, #271, #11, .T. ) ;
#133 = VERTEX_POINT ( 'NONE', #63 ) ;
#134 = DIRECTION ( 'NONE',  ( -0.000000000000000000, -0.000000000000000000, -1.000000000000000000 ) ) ;
#135 = ORIENTED_EDGE ( 'NONE', *, *, #211, .T. ) ;
#136 = ORIENTED_EDGE ( 'NONE', *, *, #243, .F. ) ;
#137 = AXIS2_PLACEMENT_3D ( 'NONE', #10, #26, #31 ) ;
#138 = CARTESIAN_POINT ( 'NONE',  ( 0.000000000000000000, 0.000000000000000000, 10.00000000000000000 ) ) ;
#139 = COLOUR_RGB ( '',1.000000000000000000, 1.000000000000000000, 1.000000000000000000 ) ;
#140 = UNCERTAINTY_MEASURE_WITH_UNIT (LENGTH_MEASURE( 1.000000000000000082E-05 ), #127, 'distance_accuracy_value', 'NONE');
#141 = CARTESIAN_POINT ( 'NONE',  ( 0.000000000000000000, 0.000000000000000000, 4.000000000000000000 ) ) ;
#142 = EDGE_CURVE ( 'NONE', #181, #121, #115, .T. ) ;
#143 = CARTESIAN_POINT ( 'NONE',  ( 0.000000000000000000, 0.000000000000000000, 4.000000000000000000 ) ) ;
#144 =( NAMED_UNIT ( * ) PLANE_ANGLE_UNIT ( ) SI_UNIT ( $, .RADIAN. ) );
#145 = VECTOR ( 'NONE', #8, 1000.000000000000114 ) ;
#146 = MECHANICAL_DESIGN_GEOMETRIC_PRESENTATION_REPRESENTATION (  '', ( #21 ), #119 ) ;
#147 = CARTESIAN_POINT ( 'NONE',  ( 0.000000000000000000, 0.000000000000000000, 0.000000000000000000 ) ) ;
#148 = ORIENTED_EDGE ( 'NONE', *, *, #172, .F. ) ;
#149 = AXIS2_PLACEMENT_3D ( 'NONE', #141, #231, #38 ) ;
#150 = DIRECTION ( 'NONE',  ( 1.000000000000000000, 0.000000000000000000, 0.000000000000000000 ) ) ;
#151 = EDGE_CURVE ( 'NONE', #174, #242, #201, .T. ) ;
#152 = DIRECTION ( 'NONE',  ( -1.224646799147353207E-16, -1.000000000000000000, 0.000000000000000000 ) ) ;
#153 = ORIENTED_EDGE ( 'NONE', *, *, #234, .F. ) ;
#154 = CARTESIAN_POINT ( 'NONE',  ( 0.000000000000000000, 0.000000000000000000, 77.52099208968219557 ) ) ;
#155 = ORIENTED_EDGE ( 'NONE', *, *, #132, .T. ) ;
#156 = CONICAL_SURFACE ( 'NONE', #272, 6.165966899419030867, 0.7853981633974718157 ) ;
#157 = CARTESIAN_POINT ( 'NONE',  ( 0.000000000000000000, 6.349999999999999645, 4.000000000000000000 ) ) ;
#158 = ORIENTED_EDGE ( 'NONE', *, *, #106, .F. ) ;
#159 = ORIENTED_EDGE ( 'NONE', *, *, #43, .F. ) ;
#160 = CARTESIAN_POINT ( 'NONE',  ( 0.000000000000000000, 4.592425496802574958E-16, 0.4909272105614757575 ) ) ;
#161 = VECTOR ( 'NONE', #23, 1000.000000000000000 ) ;
#162 = DIRECTION ( 'NONE',  ( -1.000000000000000000, 0.000000000000000000, 0.000000000000000000 ) ) ;
#163 = DIRECTION ( 'NONE',  ( 1.000000000000000000, 0.000000000000000000, 0.000000000000000000 ) ) ;
#164 = AXIS2_PLACEMENT_3D ( 'NONE', #62, #60, #256 ) ;
#165 = CARTESIAN_POINT ( 'NONE',  ( -6.165966899419030867, 0.000000000000000000, 5.384033100580984055 ) ) ;
#166 = DIRECTION ( 'NONE',  ( 0.000000000000000000, 0.000000000000000000, -1.000000000000000000 ) ) ;
#167 = DIRECTION ( 'NONE',  ( 1.000000000000000000, 0.000000000000000000, 0.000000000000000000 ) ) ;
#168 = AXIS2_PLACEMENT_3D ( 'NONE', #262, #150, #49 ) ;
#169 = EDGE_CURVE ( 'NONE', #271, #74, #12, .T. ) ;
#170 = PRODUCT_CONTEXT ( 'NONE', #186, 'mechanical' ) ;
#171 = ORIENTED_EDGE ( 'NONE', *, *, #243, .T. ) ;
#172 = EDGE_CURVE ( 'NONE', #15, #121, #202, .T. ) ;
#173 = LINE ( 'NONE', #222, #161 ) ;
#174 = VERTEX_POINT ( 'NONE', #278 ) ;
#175 = DIRECTION ( 'NONE',  ( -0.000000000000000000, -0.000000000000000000, 1.000000000000000000 ) ) ;
#176 = PRESENTATION_LAYER_ASSIGNMENT (  '', '', ( #21 ) ) ;
#177 = DIRECTION ( 'NONE',  ( -1.000000000000000000, 0.000000000000000000, 0.000000000000000000 ) ) ;
#178 = FACE_OUTER_BOUND ( 'NONE', #195, .T. ) ;
#179 = EDGE_LOOP ( 'NONE', ( #76, #171, #103, #158, #223 ) ) ;
#180 = ORIENTED_EDGE ( 'NONE', *, *, #151, .T. ) ;
#181 = VERTEX_POINT ( 'NONE', #18 ) ;
#182 = EDGE_CURVE ( 'NONE', #242, #181, #68, .T. ) ;
#183 = CARTESIAN_POINT ( 'NONE',  ( 6.349999999999999645, 7.776507174585692163E-16, 5.200000000000024158 ) ) ;
#184 = EDGE_CURVE ( 'NONE', #122, #52, #42, .T. ) ;
#185 = CARTESIAN_POINT ( 'NONE',  ( 0.000000000000000000, 0.000000000000000000, 5.384033100580984055 ) ) ;
#186 = APPLICATION_CONTEXT ( 'automotive_design' ) ;
#187 = DIRECTION ( 'NONE',  ( 1.000000000000000000, 0.000000000000000000, 0.000000000000000000 ) ) ;
#188 = DIRECTION ( 'NONE',  ( -1.000000000000000000, 1.224646799147353207E-16, 0.000000000000000000 ) ) ;
#189 = CARTESIAN_POINT ( 'NONE',  ( 0.000000000000000000, 0.000000000000000000, 4.000000000000000000 ) ) ;
#190 = AXIS2_PLACEMENT_3D ( 'NONE', #252, #188, #209 ) ;
#191 = AXIS2_PLACEMENT_3D ( 'NONE', #207, #206, #14 ) ;
#192 = CARTESIAN_POINT ( 'NONE',  ( 6.165966899419028202, 7.663819400803865896E-16, 5.384033100581012476 ) ) ;
#193 =( NAMED_UNIT ( * ) PLANE_ANGLE_UNIT ( ) SI_UNIT ( $, .RADIAN. ) );
#194 = UNCERTAINTY_MEASURE_WITH_UNIT (LENGTH_MEASURE( 1.000000000000000082E-05 ), #1, 'distance_accuracy_value', 'NONE');
#195 = EDGE_LOOP ( 'NONE', ( #230, #24, #277, #267 ) ) ;
#196 = EDGE_CURVE ( 'NONE', #271, #181, #173, .T. ) ;
#197 = CIRCLE ( 'NONE', #216, 6.165966899419028202 ) ;
#198 = LINE ( 'NONE', #5, #145 ) ;
#199 = CARTESIAN_POINT ( 'NONE',  ( 0.000000000000000000, 0.000000000000000000, 10.00000000000000000 ) ) ;
#200 = CARTESIAN_POINT ( 'NONE',  ( 0.000000000000000000, 0.000000000000000000, 5.384033100581012476 ) ) ;
#201 = CIRCLE ( 'NONE', #149, 6.349999999999998757 ) ;
#202 = CIRCLE ( 'NONE', #190, 7.500000000000000888 ) ;
#203 = ORIENTED_EDGE ( 'NONE', *, *, #268, .T. ) ;
#204 = EDGE_CURVE ( 'NONE', #15, #242, #210, .T. ) ;
#205 = STYLED_ITEM ( 'NONE', ( #2 ), #258 ) ;
#206 = DIRECTION ( 'NONE',  ( -1.000000000000000000, 0.000000000000000000, 0.000000000000000000 ) ) ;
#207 = CARTESIAN_POINT ( 'NONE',  ( 0.000000000000000000, 0.000000000000000000, 77.52099208968219557 ) ) ;
#208 = DIRECTION ( 'NONE',  ( 0.000000000000000000, 1.000000000000000000, 0.000000000000000000 ) ) ;
#209 = DIRECTION ( 'NONE',  ( -1.224646799147353207E-16, -1.000000000000000000, 0.000000000000000000 ) ) ;
#210 = CIRCLE ( 'NONE', #137, 7.500000000000000888 ) ;
#211 = EDGE_CURVE ( 'NONE', #133, #29, #93, .T. ) ;
#212 = APPLICATION_PROTOCOL_DEFINITION ( 'draft international standard', 'automotive_design', 1998, #186 ) ;
#213 = DIRECTION ( 'NONE',  ( 0.000000000000000000, 0.000000000000000000, 1.000000000000000000 ) ) ;
#214 = CARTESIAN_POINT ( 'NONE',  ( 0.000000000000000000, 0.000000000000000000, 7.990927210561475924 ) ) ;
#215 = ORIENTED_EDGE ( 'NONE', *, *, #204, .T. ) ;
#216 = AXIS2_PLACEMENT_3D ( 'NONE', #75, #270, #73 ) ;
#217 = DIRECTION ( 'NONE',  ( 0.000000000000000000, 1.000000000000000000, 0.000000000000000000 ) ) ;
#218 = ADVANCED_FACE ( 'NONE', ( #95 ), #269, .F. ) ;
#219 = ORIENTED_EDGE ( 'NONE', *, *, #234, .T. ) ;
#220 = CARTESIAN_POINT ( 'NONE',  ( 6.349999999999999645, 7.776507174585692163E-16, 10.00000000000000000 ) ) ;
#221 = EDGE_LOOP ( 'NONE', ( #148, #215, #116, #159 ) ) ;
#222 = CARTESIAN_POINT ( 'NONE',  ( -6.349999999999999645, 0.000000000000000000, 10.00000000000000000 ) ) ;
#223 = ORIENTED_EDGE ( 'NONE', *, *, #125, .F. ) ;
#224 = ADVANCED_FACE ( 'NONE', ( #178 ), #109, .T. ) ;
#225 = AXIS2_PLACEMENT_3D ( 'NONE', #189, #175, #112 ) ;
#226 = AXIS2_PLACEMENT_3D ( 'NONE', #57, #229, #187 ) ;
#227 = PRESENTATION_LAYER_ASSIGNMENT (  '', '', ( #205 ) ) ;
#228 = DIRECTION ( 'NONE',  ( -0.000000000000000000, -0.000000000000000000, -1.000000000000000000 ) ) ;
#229 = DIRECTION ( 'NONE',  ( -0.000000000000000000, -0.000000000000000000, 1.000000000000000000 ) ) ;
#230 = ORIENTED_EDGE ( 'NONE', *, *, #204, .F. ) ;
#231 = DIRECTION ( 'NONE',  ( -0.000000000000000000, -0.000000000000000000, 1.000000000000000000 ) ) ;
#232 = DIRECTION ( 'NONE',  ( -0.7071067811865642261, 0.000000000000000000, -0.7071067811865308084 ) ) ;
#233 = FILL_AREA_STYLE_COLOUR ( '', #139 ) ;
#234 = EDGE_CURVE ( 'NONE', #52, #118, #197, .T. ) ;
#235 = APPLICATION_PROTOCOL_DEFINITION ( 'draft international standard', 'automotive_design', 1998, #102 ) ;
#236 = FILL_AREA_STYLE ('',( #233 ) ) ;
#237 = DIRECTION ( 'NONE',  ( -1.000000000000000000, 0.000000000000000000, 0.000000000000000000 ) ) ;
#238 = ORIENTED_EDGE ( 'NONE', *, *, #182, .T. ) ;
#239 = ORIENTED_EDGE ( 'NONE', *, *, #132, .F. ) ;
#240 = FILL_AREA_STYLE_COLOUR ( '', #72 ) ;
#241 = FACE_OUTER_BOUND ( 'NONE', #3, .T. ) ;
#242 = VERTEX_POINT ( 'NONE', #157 ) ;
#243 = EDGE_CURVE ( 'NONE', #118, #74, #198, .T. ) ;
#244 = CARTESIAN_POINT ( 'NONE',  ( 0.000000000000000000, 6.165966899419214720, 5.384033100581012476 ) ) ;
#245 = DIRECTION ( 'NONE',  ( 0.000000000000000000, 0.000000000000000000, -1.000000000000000000 ) ) ;
#246 = AXIS2_PLACEMENT_3D ( 'NONE', #70, #94, #152 ) ;
#247 = FACE_OUTER_BOUND ( 'NONE', #263, .T. ) ;
#248 = FACE_OUTER_BOUND ( 'NONE', #179, .T. ) ;
#249 = CIRCLE ( 'NONE', #129, 6.165966899419028202 ) ;
#250 = DIRECTION ( 'NONE',  ( -0.000000000000000000, -0.000000000000000000, 1.000000000000000000 ) ) ;
#251 = CLOSED_SHELL ( 'NONE', ( #7, #30, #224, #279, #98, #4, #218, #86 ) ) ;
#252 = CARTESIAN_POINT ( 'NONE',  ( 0.000000000000000000, 0.000000000000000000, 7.990927210561475924 ) ) ;
#253 = PRESENTATION_STYLE_ASSIGNMENT (( #65 ) ) ;
#254 =( GEOMETRIC_REPRESENTATION_CONTEXT ( 3 ) GLOBAL_UNCERTAINTY_ASSIGNED_CONTEXT ( ( #194 ) ) GLOBAL_UNIT_ASSIGNED_CONTEXT ( ( #1, #144, #85 ) ) REPRESENTATION_CONTEXT ( 'NONE', 'WORKASPACE' ) );
#255 = EDGE_CURVE ( 'NONE', #74, #174, #266, .T. ) ;
#256 = DIRECTION ( 'NONE',  ( 1.000000000000000000, 0.000000000000000000, 0.000000000000000000 ) ) ;
#257 = FILL_AREA_STYLE ('',( #240 ) ) ;
#258 = ADVANCED_BREP_SHAPE_REPRESENTATION ( 'GLM5-012B-020', ( #280, #84 ), #46 ) ;
#259 =( NAMED_UNIT ( * ) PLANE_ANGLE_UNIT ( ) SI_UNIT ( $, .RADIAN. ) );
#260 = PRODUCT_DEFINITION ( 'Î´Öª', '', #61, #59 ) ;
#261 = ORIENTED_EDGE ( 'NONE', *, *, #268, .F. ) ;
#262 = CARTESIAN_POINT ( 'NONE',  ( 0.000000000000000000, 0.000000000000000000, 77.52099208968219557 ) ) ;
#263 = EDGE_LOOP ( 'NONE', ( #6, #203, #219, #67 ) ) ;
#264 = AXIS2_PLACEMENT_3D ( 'NONE', #200, #91, #28 ) ;
#265 = AXIS2_PLACEMENT_3D ( 'NONE', #34, #16, #163 ) ;
#266 = LINE ( 'NONE', #220, #100 ) ;
#267 = ORIENTED_EDGE ( 'NONE', *, *, #182, .F. ) ;
#268 = EDGE_CURVE ( 'NONE', #133, #52, #79, .T. ) ;
#269 = SPHERICAL_SURFACE ( 'NONE', #124, 72.40000000000000568 ) ;
#270 = DIRECTION ( 'NONE',  ( -0.000000000000000000, -0.000000000000000000, 1.000000000000000000 ) ) ;
#271 = VERTEX_POINT ( 'NONE', #47 ) ;
#272 = AXIS2_PLACEMENT_3D ( 'NONE', #77, #245, #276 ) ;
#273 = DIRECTION ( 'NONE',  ( 0.000000000000000000, 0.000000000000000000, -1.000000000000000000 ) ) ;
#274 = DIRECTION ( 'NONE',  ( -1.000000000000000000, 0.000000000000000000, 0.000000000000000000 ) ) ;
#275 = FACE_OUTER_BOUND ( 'NONE', #101, .T. ) ;
#276 = DIRECTION ( 'NONE',  ( -1.000000000000000000, 0.000000000000000000, 0.000000000000000000 ) ) ;
#277 = ORIENTED_EDGE ( 'NONE', *, *, #142, .F. ) ;
#278 = CARTESIAN_POINT ( 'NONE',  ( 6.349999999999998757, 7.776507174585691177E-16, 4.000000000000000000 ) ) ;
#279 = ADVANCED_FACE ( 'NONE', ( #241 ), #110, .T. ) ;
#280 = MANIFOLD_SOLID_BREP ( 'µ¹½Ç1', #251 ) ;
#281 = CARTESIAN_POINT ( 'NONE',  ( 0.000000000000000000, 0.000000000000000000, 5.384033100581012476 ) ) ;
#282 = SURFACE_STYLE_FILL_AREA ( #257 ) ;
ENDSEC;
END-ISO-10303-21;
