ISO-10303-21;
HEADER;
FILE_DESCRIPTION (( 'STEP AP214' ),
    '1' );
FILE_NAME ('GLM2-050B-150-UV.STEP',
    '2024-08-09T02:51:11',
    ( 'Windows User' ),
    ( 'P R C' ),
    'SwSTEP 2.0',
    'SolidWorks 2022',
    '' );
FILE_SCHEMA (( 'AUTOMOTIVE_DESIGN' ));
ENDSEC;

DATA;
#1 = CARTESIAN_POINT ( 'NONE',  ( 0.000000000000000000, 0.000000000000000000, 17.66798998684060251 ) ) ;
#2 = ADVANCED_FACE ( 'NONE', ( #90 ), #224, .T. ) ;
#3 = AXIS2_PLACEMENT_3D ( 'NONE', #81, #124, #83 ) ;
#4 = DIRECTION ( 'NONE',  ( 0.000000000000000000, 0.000000000000000000, -1.000000000000000000 ) ) ;
#5 = FACE_OUTER_BOUND ( 'NONE', #212, .T. ) ;
#6 = CARTESIAN_POINT ( 'NONE',  ( 0.000000000000000000, 0.000000000000000000, 15.00000000000000000 ) ) ;
#7 = EDGE_CURVE ( 'NONE', #208, #125, #263, .T. ) ;
#8 = AXIS2_PLACEMENT_3D ( 'NONE', #49, #52, #179 ) ;
#9 = DIRECTION ( 'NONE',  ( -1.000000000000000000, 0.000000000000000000, 0.000000000000000000 ) ) ;
#10 = SURFACE_STYLE_USAGE ( .BOTH. , #231 ) ;
#11 = DIRECTION ( 'NONE',  ( -1.224646799147353207E-16, -1.000000000000000000, 0.000000000000000000 ) ) ;
#12 = ORIENTED_EDGE ( 'NONE', *, *, #63, .F. ) ;
#13 = AXIS2_PLACEMENT_3D ( 'NONE', #167, #271, #205 ) ;
#14 = CARTESIAN_POINT ( 'NONE',  ( -25.39999999999999503, 0.000000000000000000, 15.00000000000000000 ) ) ;
#15 = CARTESIAN_POINT ( 'NONE',  ( 0.000000000000000000, 0.000000000000000000, 15.00000000000000000 ) ) ;
#16 = ORIENTED_EDGE ( 'NONE', *, *, #28, .T. ) ;
#17 = SURFACE_STYLE_FILL_AREA ( #282 ) ;
#18 = AXIS2_PLACEMENT_3D ( 'NONE', #29, #139, #67 ) ;
#19 = VERTEX_POINT ( 'NONE', #159 ) ;
#20 = EDGE_CURVE ( 'NONE', #170, #189, #157, .T. ) ;
#21 = CYLINDRICAL_SURFACE ( 'NONE', #273, 25.39999999999999858 ) ;
#22 = PRESENTATION_STYLE_ASSIGNMENT (( #132 ) ) ;
#23 = ADVANCED_FACE ( 'NONE', ( #244 ), #21, .T. ) ;
#24 = APPLICATION_CONTEXT ( 'automotive_design' ) ;
#25 = CARTESIAN_POINT ( 'NONE',  ( 0.000000000000000000, 0.000000000000000000, 17.49999999999998934 ) ) ;
#26 = AXIS2_PLACEMENT_3D ( 'NONE', #196, #137, #112 ) ;
#27 = LINE ( 'NONE', #145, #160 ) ;
#28 = EDGE_CURVE ( 'NONE', #61, #64, #131, .T. ) ;
#29 = CARTESIAN_POINT ( 'NONE',  ( 0.000000000000000000, 0.000000000000000000, 150.5435263759585780 ) ) ;
#30 = CARTESIAN_POINT ( 'NONE',  ( 0.000000000000000000, 0.000000000000000000, 150.5435263759585780 ) ) ;
#31 = AXIS2_PLACEMENT_3D ( 'NONE', #50, #4, #69 ) ;
#32 = VERTEX_POINT ( 'NONE', #114 ) ;
#33 = DIRECTION ( 'NONE',  ( 1.000000000000000000, 0.000000000000000000, 0.000000000000000000 ) ) ;
#34 = ORIENTED_EDGE ( 'NONE', *, *, #63, .T. ) ;
#35 = FILL_AREA_STYLE ('',( #272 ) ) ;
#36 = VERTEX_POINT ( 'NONE', #176 ) ;
#37 = PRODUCT_DEFINITION ( 'Î´Öª', '', #236, #161 ) ;
#38 = DIRECTION ( 'NONE',  ( 1.000000000000000000, 0.000000000000000000, 0.000000000000000000 ) ) ;
#39 = ORIENTED_EDGE ( 'NONE', *, *, #154, .F. ) ;
#40 = APPLICATION_PROTOCOL_DEFINITION ( 'draft international standard', 'automotive_design', 1998, #181 ) ;
#41 = ORIENTED_EDGE ( 'NONE', *, *, #265, .T. ) ;
#42 = CARTESIAN_POINT ( 'NONE',  ( 0.000000000000000000, 8.281673979233975438E-15, 15.29352637595859932 ) ) ;
#43 = CIRCLE ( 'NONE', #77, 25.39999999999999503 ) ;
#44 = VECTOR ( 'NONE', #94, 1000.000000000000000 ) ;
#45 = DIRECTION ( 'NONE',  ( 1.000000000000000000, 0.000000000000000000, 0.000000000000000000 ) ) ;
#46 = CIRCLE ( 'NONE', #122, 46.53000000000000114 ) ;
#47 = STYLED_ITEM ( 'NONE', ( #22 ), #79 ) ;
#48 = SPHERICAL_SURFACE ( 'NONE', #18, 135.2499999999999716 ) ;
#49 = CARTESIAN_POINT ( 'NONE',  ( 0.000000000000000000, 0.000000000000000000, 17.66798998684060251 ) ) ;
#50 = CARTESIAN_POINT ( 'NONE',  ( 0.000000000000000000, 0.000000000000000000, 17.66798998684057764 ) ) ;
#51 = CIRCLE ( 'NONE', #197, 25.23201001315934988 ) ;
#52 = DIRECTION ( 'NONE',  ( -0.000000000000000000, -0.000000000000000000, 1.000000000000000000 ) ) ;
#53 = AXIS2_PLACEMENT_3D ( 'NONE', #15, #106, #38 ) ;
#54 = CARTESIAN_POINT ( 'NONE',  ( 0.000000000000000000, 0.000000000000000000, 53.98564992404256913 ) ) ;
#55 = ORIENTED_EDGE ( 'NONE', *, *, #193, .T. ) ;
#56 = DIRECTION ( 'NONE',  ( -0.000000000000000000, -0.000000000000000000, -1.000000000000000000 ) ) ;
#57 = ORIENTED_EDGE ( 'NONE', *, *, #193, .F. ) ;
#58 =( LENGTH_UNIT ( ) NAMED_UNIT ( * ) SI_UNIT ( .MILLI., .METRE. ) );
#59 = ORIENTED_EDGE ( 'NONE', *, *, #248, .F. ) ;
#60 = DIRECTION ( 'NONE',  ( 0.000000000000000000, 0.000000000000000000, -1.000000000000000000 ) ) ;
#61 = VERTEX_POINT ( 'NONE', #42 ) ;
#62 = PRODUCT_CONTEXT ( 'NONE', #181, 'mechanical' ) ;
#63 = EDGE_CURVE ( 'NONE', #125, #186, #43, .T. ) ;
#64 = VERTEX_POINT ( 'NONE', #146 ) ;
#65 = AXIS2_PLACEMENT_3D ( 'NONE', #54, #99, #60 ) ;
#66 = DIRECTION ( 'NONE',  ( -1.000000000000000000, 0.000000000000000000, 0.000000000000000000 ) ) ;
#67 = DIRECTION ( 'NONE',  ( 0.000000000000000000, 1.000000000000000000, 0.000000000000000000 ) ) ;
#68 = CONICAL_SURFACE ( 'NONE', #162, 25.23201001315934988, 0.7853981633976238053 ) ;
#69 = DIRECTION ( 'NONE',  ( -1.000000000000000000, 0.000000000000000000, 0.000000000000000000 ) ) ;
#70 = DIRECTION ( 'NONE',  ( -1.000000000000000000, 0.000000000000000000, 0.000000000000000000 ) ) ;
#71 = ADVANCED_FACE ( 'NONE', ( #225 ), #48, .F. ) ;
#72 = DIRECTION ( 'NONE',  ( -0.000000000000000000, -0.000000000000000000, -1.000000000000000000 ) ) ;
#73 =( GEOMETRIC_REPRESENTATION_CONTEXT ( 3 ) GLOBAL_UNCERTAINTY_ASSIGNED_CONTEXT ( ( #246 ) ) GLOBAL_UNIT_ASSIGNED_CONTEXT ( ( #127, #209, #155 ) ) REPRESENTATION_CONTEXT ( 'NONE', 'WORKASPACE' ) );
#74 = PRODUCT ( 'GLM2-050B-150-UV', 'GLM2-050B-150-UV', '', ( #62 ) ) ;
#75 = DIRECTION ( 'NONE',  ( -0.000000000000000000, -0.000000000000000000, 1.000000000000000000 ) ) ;
#76 = ORIENTED_EDGE ( 'NONE', *, *, #216, .F. ) ;
#77 = AXIS2_PLACEMENT_3D ( 'NONE', #215, #95, #247 ) ;
#78 = DIRECTION ( 'NONE',  ( 1.000000000000000000, 0.000000000000000000, 0.000000000000000000 ) ) ;
#79 = ADVANCED_BREP_SHAPE_REPRESENTATION ( 'GLM2-050B-150-UV', ( #219, #85 ), #73 ) ;
#80 = ORIENTED_EDGE ( 'NONE', *, *, #20, .F. ) ;
#81 = CARTESIAN_POINT ( 'NONE',  ( 0.000000000000000000, 0.000000000000000000, 17.49999999999998934 ) ) ;
#82 = EDGE_LOOP ( 'NONE', ( #57, #232, #130, #12 ) ) ;
#83 = DIRECTION ( 'NONE',  ( 1.000000000000000000, 0.000000000000000000, 0.000000000000000000 ) ) ;
#84 = STYLED_ITEM ( 'NONE', ( #151 ), #219 ) ;
#85 = AXIS2_PLACEMENT_3D ( 'NONE', #214, #223, #195 ) ;
#86 = ORIENTED_EDGE ( 'NONE', *, *, #28, .F. ) ;
#87 = ADVANCED_FACE ( 'NONE', ( #141 ), #199, .T. ) ;
#88 = CARTESIAN_POINT ( 'NONE',  ( 0.000000000000000000, 0.000000000000000000, 20.00000000000000000 ) ) ;
#89 = VECTOR ( 'NONE', #163, 1000.000000000000000 ) ;
#90 = FACE_OUTER_BOUND ( 'NONE', #217, .T. ) ;
#91 = DIRECTION ( 'NONE',  ( -1.000000000000000000, 0.000000000000000000, 0.000000000000000000 ) ) ;
#92 = CIRCLE ( 'NONE', #65, 46.53000000000000114 ) ;
#93 = DIRECTION ( 'NONE',  ( 1.000000000000000000, 0.000000000000000000, 0.000000000000000000 ) ) ;
#94 = DIRECTION ( 'NONE',  ( -0.7071067811866716957, 0.000000000000000000, -0.7071067811864233388 ) ) ;
#95 = DIRECTION ( 'NONE',  ( -0.000000000000000000, -0.000000000000000000, 1.000000000000000000 ) ) ;
#96 = ADVANCED_FACE ( 'NONE', ( #119 ), #230, .F. ) ;
#97 = MECHANICAL_DESIGN_GEOMETRIC_PRESENTATION_REPRESENTATION (  '', ( #47 ), #204 ) ;
#98 = CARTESIAN_POINT ( 'NONE',  ( -3.110602869834276471E-15, -25.39999999999999858, 15.00000000000000000 ) ) ;
#99 = DIRECTION ( 'NONE',  ( 1.000000000000000000, -0.000000000000000000, 0.000000000000000000 ) ) ;
#100 = CLOSED_SHELL ( 'NONE', ( #120, #96, #2, #87, #23, #150, #71, #111 ) ) ;
#101 = ORIENTED_EDGE ( 'NONE', *, *, #250, .F. ) ;
#102 = CIRCLE ( 'NONE', #53, 25.39999999999999503 ) ;
#103 =( NAMED_UNIT ( * ) SI_UNIT ( $, .STERADIAN. ) SOLID_ANGLE_UNIT ( ) );
#104 = ORIENTED_EDGE ( 'NONE', *, *, #129, .F. ) ;
#105 =( NAMED_UNIT ( * ) PLANE_ANGLE_UNIT ( ) SI_UNIT ( $, .RADIAN. ) );
#106 = DIRECTION ( 'NONE',  ( -0.000000000000000000, -0.000000000000000000, 1.000000000000000000 ) ) ;
#107 = AXIS2_PLACEMENT_3D ( 'NONE', #184, #164, #118 ) ;
#108 = APPLICATION_PROTOCOL_DEFINITION ( 'draft international standard', 'automotive_design', 1998, #24 ) ;
#109 =( NAMED_UNIT ( * ) SI_UNIT ( $, .STERADIAN. ) SOLID_ANGLE_UNIT ( ) );
#110 = DIRECTION ( 'NONE',  ( -0.000000000000000000, -0.000000000000000000, -1.000000000000000000 ) ) ;
#111 = ADVANCED_FACE ( 'NONE', ( #202 ), #68, .T. ) ;
#112 = DIRECTION ( 'NONE',  ( 0.000000000000000000, 0.000000000000000000, -1.000000000000000000 ) ) ;
#113 = UNCERTAINTY_MEASURE_WITH_UNIT (LENGTH_MEASURE( 1.000000000000000082E-05 ), #158, 'distance_accuracy_value', 'NONE');
#114 = CARTESIAN_POINT ( 'NONE',  ( 0.000000000000000000, 2.849140778216317103E-15, 7.455649924042566212 ) ) ;
#115 = DIRECTION ( 'NONE',  ( 1.000000000000000000, 0.000000000000000000, 0.000000000000000000 ) ) ;
#116 = AXIS2_PLACEMENT_3D ( 'NONE', #220, #135, #45 ) ;
#117 = EDGE_CURVE ( 'NONE', #235, #19, #169, .T. ) ;
#118 = DIRECTION ( 'NONE',  ( 0.000000000000000000, 1.000000000000000000, 0.000000000000000000 ) ) ;
#119 = FACE_OUTER_BOUND ( 'NONE', #149, .T. ) ;
#120 = ADVANCED_FACE ( 'NONE', ( #5 ), #177, .T. ) ;
#121 = DIRECTION ( 'NONE',  ( 0.000000000000000000, 0.000000000000000000, -1.000000000000000000 ) ) ;
#122 = AXIS2_PLACEMENT_3D ( 'NONE', #148, #278, #11 ) ;
#123 = ORIENTED_EDGE ( 'NONE', *, *, #267, .F. ) ;
#124 = DIRECTION ( 'NONE',  ( 0.000000000000000000, 0.000000000000000000, -1.000000000000000000 ) ) ;
#125 = VERTEX_POINT ( 'NONE', #98 ) ;
#126 = ORIENTED_EDGE ( 'NONE', *, *, #201, .T. ) ;
#127 =( LENGTH_UNIT ( ) NAMED_UNIT ( * ) SI_UNIT ( .MILLI., .METRE. ) );
#128 = ORIENTED_EDGE ( 'NONE', *, *, #250, .T. ) ;
#129 = EDGE_CURVE ( 'NONE', #36, #235, #269, .T. ) ;
#130 = ORIENTED_EDGE ( 'NONE', *, *, #136, .F. ) ;
#131 = CIRCLE ( 'NONE', #26, 135.2499999999999716 ) ;
#132 = SURFACE_STYLE_USAGE ( .BOTH. , #218 ) ;
#133 = DIRECTION ( 'NONE',  ( 1.000000000000000000, 0.000000000000000000, 0.000000000000000000 ) ) ;
#134 = CIRCLE ( 'NONE', #3, 25.39999999999999858 ) ;
#135 = DIRECTION ( 'NONE',  ( -0.000000000000000000, -0.000000000000000000, 1.000000000000000000 ) ) ;
#136 = EDGE_CURVE ( 'NONE', #186, #274, #221, .T. ) ;
#137 = DIRECTION ( 'NONE',  ( 1.000000000000000000, 0.000000000000000000, 0.000000000000000000 ) ) ;
#138 =( NAMED_UNIT ( * ) PLANE_ANGLE_UNIT ( ) SI_UNIT ( $, .RADIAN. ) );
#139 = DIRECTION ( 'NONE',  ( -1.000000000000000000, 0.000000000000000000, 0.000000000000000000 ) ) ;
#140 = EDGE_CURVE ( 'NONE', #189, #64, #259, .T. ) ;
#141 = FACE_OUTER_BOUND ( 'NONE', #173, .T. ) ;
#142 = AXIS2_PLACEMENT_3D ( 'NONE', #1, #194, #133 ) ;
#143 = CARTESIAN_POINT ( 'NONE',  ( -3.090030029866962391E-15, -25.23201001315939607, 17.66798998684061672 ) ) ;
#144 = CIRCLE ( 'NONE', #13, 135.2499999999999716 ) ;
#145 = CARTESIAN_POINT ( 'NONE',  ( 25.23201001315934988, 3.090030029866955686E-15, 17.66798998684057764 ) ) ;
#146 = CARTESIAN_POINT ( 'NONE',  ( 0.000000000000000000, 25.23201001315939607, 17.66798998684061672 ) ) ;
#147 =( GEOMETRIC_REPRESENTATION_CONTEXT ( 3 ) GLOBAL_UNCERTAINTY_ASSIGNED_CONTEXT ( ( #228 ) ) GLOBAL_UNIT_ASSIGNED_CONTEXT ( ( #58, #105, #103 ) ) REPRESENTATION_CONTEXT ( 'NONE', 'WORKASPACE' ) );
#148 = CARTESIAN_POINT ( 'NONE',  ( 0.000000000000000000, 0.000000000000000000, 53.98564992404256913 ) ) ;
#149 = EDGE_LOOP ( 'NONE', ( #86, #126, #258, #242 ) ) ;
#150 = ADVANCED_FACE ( 'NONE', ( #183 ), #249, .T. ) ;
#151 = PRESENTATION_STYLE_ASSIGNMENT (( #10 ) ) ;
#152 = ORIENTED_EDGE ( 'NONE', *, *, #7, .T. ) ;
#153 = ORIENTED_EDGE ( 'NONE', *, *, #165, .T. ) ;
#154 = EDGE_CURVE ( 'NONE', #189, #19, #27, .T. ) ;
#155 =( NAMED_UNIT ( * ) SI_UNIT ( $, .STERADIAN. ) SOLID_ANGLE_UNIT ( ) );
#156 = ORIENTED_EDGE ( 'NONE', *, *, #117, .T. ) ;
#157 = CIRCLE ( 'NONE', #142, 25.23201001315934988 ) ;
#158 =( LENGTH_UNIT ( ) NAMED_UNIT ( * ) SI_UNIT ( .MILLI., .METRE. ) );
#159 = CARTESIAN_POINT ( 'NONE',  ( 25.39999999999999858, 3.110602869834276865E-15, 17.49999999999998934 ) ) ;
#160 = VECTOR ( 'NONE', #270, 1000.000000000000000 ) ;
#161 = PRODUCT_DEFINITION_CONTEXT ( 'detailed design', #24, 'design' ) ;
#162 = AXIS2_PLACEMENT_3D ( 'NONE', #166, #121, #9 ) ;
#163 = DIRECTION ( 'NONE',  ( -0.000000000000000000, -0.000000000000000000, -1.000000000000000000 ) ) ;
#164 = DIRECTION ( 'NONE',  ( -1.000000000000000000, 0.000000000000000000, 0.000000000000000000 ) ) ;
#165 = EDGE_CURVE ( 'NONE', #19, #186, #251, .T. ) ;
#166 = CARTESIAN_POINT ( 'NONE',  ( 0.000000000000000000, 0.000000000000000000, 17.66798998684057764 ) ) ;
#167 = CARTESIAN_POINT ( 'NONE',  ( 0.000000000000000000, 0.000000000000000000, 150.5435263759585780 ) ) ;
#168 = ORIENTED_EDGE ( 'NONE', *, *, #129, .T. ) ;
#169 = CIRCLE ( 'NONE', #187, 25.39999999999999858 ) ;
#170 = VERTEX_POINT ( 'NONE', #143 ) ;
#171 = ORIENTED_EDGE ( 'NONE', *, *, #248, .T. ) ;
#172 = COLOUR_RGB ( '',1.000000000000000000, 1.000000000000000000, 1.000000000000000000 ) ;
#173 = EDGE_LOOP ( 'NONE', ( #156, #153, #210, #239, #206 ) ) ;
#174 = DIRECTION ( 'NONE',  ( 0.000000000000000000, 1.000000000000000000, 0.000000000000000000 ) ) ;
#175 = AXIS2_PLACEMENT_3D ( 'NONE', #188, #255, #33 ) ;
#176 = CARTESIAN_POINT ( 'NONE',  ( -25.23201001315934988, 0.000000000000000000, 17.66798998684060251 ) ) ;
#177 = CONICAL_SURFACE ( 'NONE', #31, 25.23201001315934988, 0.7853981633976238053 ) ;
#178 = DIRECTION ( 'NONE',  ( 0.000000000000000000, 1.000000000000000000, 0.000000000000000000 ) ) ;
#179 = DIRECTION ( 'NONE',  ( 1.000000000000000000, 0.000000000000000000, 0.000000000000000000 ) ) ;
#180 = DIRECTION ( 'NONE',  ( -0.000000000000000000, -0.000000000000000000, 1.000000000000000000 ) ) ;
#181 = APPLICATION_CONTEXT ( 'automotive_design' ) ;
#182 = AXIS2_PLACEMENT_3D ( 'NONE', #203, #72, #91 ) ;
#183 = FACE_OUTER_BOUND ( 'NONE', #82, .T. ) ;
#184 = CARTESIAN_POINT ( 'NONE',  ( 0.000000000000000000, 0.000000000000000000, 53.98564992404256913 ) ) ;
#185 = CARTESIAN_POINT ( 'NONE',  ( -25.39999999999999858, 0.000000000000000000, 20.00000000000000000 ) ) ;
#186 = VERTEX_POINT ( 'NONE', #237 ) ;
#187 = AXIS2_PLACEMENT_3D ( 'NONE', #25, #268, #115 ) ;
#188 = CARTESIAN_POINT ( 'NONE',  ( 0.000000000000000000, 0.000000000000000000, 17.66798998684060251 ) ) ;
#189 = VERTEX_POINT ( 'NONE', #256 ) ;
#190 = FILL_AREA_STYLE_COLOUR ( '', #172 ) ;
#191 = ORIENTED_EDGE ( 'NONE', *, *, #7, .F. ) ;
#192 = MECHANICAL_DESIGN_GEOMETRIC_PRESENTATION_REPRESENTATION (  '', ( #84 ), #147 ) ;
#193 = EDGE_CURVE ( 'NONE', #32, #125, #46, .T. ) ;
#194 = DIRECTION ( 'NONE',  ( -0.000000000000000000, -0.000000000000000000, 1.000000000000000000 ) ) ;
#195 = DIRECTION ( 'NONE',  ( 1.000000000000000000, 0.000000000000000000, 0.000000000000000000 ) ) ;
#196 = CARTESIAN_POINT ( 'NONE',  ( 0.000000000000000000, 0.000000000000000000, 150.5435263759585780 ) ) ;
#197 = AXIS2_PLACEMENT_3D ( 'NONE', #275, #75, #78 ) ;
#198 = ORIENTED_EDGE ( 'NONE', *, *, #201, .F. ) ;
#199 = CYLINDRICAL_SURFACE ( 'NONE', #182, 25.39999999999999858 ) ;
#200 = CARTESIAN_POINT ( 'NONE',  ( 25.39999999999999858, 3.110602869834276865E-15, 20.00000000000000000 ) ) ;
#201 = EDGE_CURVE ( 'NONE', #61, #170, #144, .T. ) ;
#202 = FACE_OUTER_BOUND ( 'NONE', #238, .T. ) ;
#203 = CARTESIAN_POINT ( 'NONE',  ( 0.000000000000000000, 0.000000000000000000, 20.00000000000000000 ) ) ;
#204 =( GEOMETRIC_REPRESENTATION_CONTEXT ( 3 ) GLOBAL_UNCERTAINTY_ASSIGNED_CONTEXT ( ( #113 ) ) GLOBAL_UNIT_ASSIGNED_CONTEXT ( ( #158, #138, #109 ) ) REPRESENTATION_CONTEXT ( 'NONE', 'WORKASPACE' ) );
#205 = DIRECTION ( 'NONE',  ( -1.224646799147353454E-16, -1.000000000000000000, 0.000000000000000000 ) ) ;
#206 = ORIENTED_EDGE ( 'NONE', *, *, #265, .F. ) ;
#207 = LINE ( 'NONE', #185, #264 ) ;
#208 = VERTEX_POINT ( 'NONE', #14 ) ;
#209 =( NAMED_UNIT ( * ) PLANE_ANGLE_UNIT ( ) SI_UNIT ( $, .RADIAN. ) );
#210 = ORIENTED_EDGE ( 'NONE', *, *, #136, .T. ) ;
#211 = CARTESIAN_POINT ( 'NONE',  ( 0.000000000000000000, 25.39999999999999858, 15.00000000000000000 ) ) ;
#212 = EDGE_LOOP ( 'NONE', ( #276, #266, #213, #104, #59 ) ) ;
#213 = ORIENTED_EDGE ( 'NONE', *, *, #117, .F. ) ;
#214 = CARTESIAN_POINT ( 'NONE',  ( 0.000000000000000000, 0.000000000000000000, 0.000000000000000000 ) ) ;
#215 = CARTESIAN_POINT ( 'NONE',  ( 0.000000000000000000, 0.000000000000000000, 15.00000000000000000 ) ) ;
#216 = EDGE_CURVE ( 'NONE', #32, #274, #92, .T. ) ;
#217 = EDGE_LOOP ( 'NONE', ( #76, #55, #191, #233 ) ) ;
#218 = SURFACE_SIDE_STYLE ('',( #17 ) ) ;
#219 = MANIFOLD_SOLID_BREP ( 'µ¹½Ç1', #100 ) ;
#220 = CARTESIAN_POINT ( 'NONE',  ( 0.000000000000000000, 0.000000000000000000, 15.00000000000000000 ) ) ;
#221 = CIRCLE ( 'NONE', #240, 25.39999999999999503 ) ;
#222 = PRESENTATION_LAYER_ASSIGNMENT (  '', '', ( #47 ) ) ;
#223 = DIRECTION ( 'NONE',  ( 0.000000000000000000, 0.000000000000000000, 1.000000000000000000 ) ) ;
#224 = SPHERICAL_SURFACE ( 'NONE', #253, 46.53000000000000114 ) ;
#225 = FACE_OUTER_BOUND ( 'NONE', #280, .T. ) ;
#226 = COLOUR_RGB ( '',1.000000000000000000, 1.000000000000000000, 1.000000000000000000 ) ;
#227 = CARTESIAN_POINT ( 'NONE',  ( -25.23201001315934988, 0.000000000000000000, 17.66798998684057764 ) ) ;
#228 = UNCERTAINTY_MEASURE_WITH_UNIT (LENGTH_MEASURE( 1.000000000000000082E-05 ), #58, 'distance_accuracy_value', 'NONE');
#229 = PRODUCT_DEFINITION_SHAPE ( 'NONE', 'NONE',  #37 ) ;
#230 = SPHERICAL_SURFACE ( 'NONE', #279, 135.2499999999999716 ) ;
#231 = SURFACE_SIDE_STYLE ('',( #252 ) ) ;
#232 = ORIENTED_EDGE ( 'NONE', *, *, #216, .T. ) ;
#233 = ORIENTED_EDGE ( 'NONE', *, *, #243, .F. ) ;
#234 = CARTESIAN_POINT ( 'NONE',  ( -25.39999999999999858, 0.000000000000000000, 17.49999999999998934 ) ) ;
#235 = VERTEX_POINT ( 'NONE', #234 ) ;
#236 = PRODUCT_DEFINITION_FORMATION_WITH_SPECIFIED_SOURCE ( 'ÈÎºÎ', '', #74, .NOT_KNOWN. ) ;
#237 = CARTESIAN_POINT ( 'NONE',  ( 25.39999999999999503, 3.110602869834276471E-15, 15.00000000000000000 ) ) ;
#238 = EDGE_LOOP ( 'NONE', ( #39, #80, #123, #168, #101 ) ) ;
#239 = ORIENTED_EDGE ( 'NONE', *, *, #243, .T. ) ;
#240 = AXIS2_PLACEMENT_3D ( 'NONE', #6, #180, #93 ) ;
#241 = CARTESIAN_POINT ( 'NONE',  ( 0.000000000000000000, 0.000000000000000000, 53.98564992404256913 ) ) ;
#242 = ORIENTED_EDGE ( 'NONE', *, *, #140, .T. ) ;
#243 = EDGE_CURVE ( 'NONE', #274, #208, #102, .T. ) ;
#244 = FACE_OUTER_BOUND ( 'NONE', #260, .T. ) ;
#245 = PRESENTATION_LAYER_ASSIGNMENT (  '', '', ( #84 ) ) ;
#246 = UNCERTAINTY_MEASURE_WITH_UNIT (LENGTH_MEASURE( 1.000000000000000082E-05 ), #127, 'distance_accuracy_value', 'NONE');
#247 = DIRECTION ( 'NONE',  ( 1.000000000000000000, 0.000000000000000000, 0.000000000000000000 ) ) ;
#248 = EDGE_CURVE ( 'NONE', #64, #36, #254, .T. ) ;
#249 = SPHERICAL_SURFACE ( 'NONE', #107, 46.53000000000000114 ) ;
#250 = EDGE_CURVE ( 'NONE', #19, #235, #134, .T. ) ;
#251 = LINE ( 'NONE', #200, #89 ) ;
#252 = SURFACE_STYLE_FILL_AREA ( #35 ) ;
#253 = AXIS2_PLACEMENT_3D ( 'NONE', #241, #262, #174 ) ;
#254 = CIRCLE ( 'NONE', #175, 25.23201001315934988 ) ;
#255 = DIRECTION ( 'NONE',  ( -0.000000000000000000, -0.000000000000000000, 1.000000000000000000 ) ) ;
#256 = CARTESIAN_POINT ( 'NONE',  ( 25.23201001315934988, 3.100316449850616276E-15, 17.66798998684060251 ) ) ;
#257 = ORIENTED_EDGE ( 'NONE', *, *, #165, .F. ) ;
#258 = ORIENTED_EDGE ( 'NONE', *, *, #20, .T. ) ;
#259 = CIRCLE ( 'NONE', #8, 25.23201001315934988 ) ;
#260 = EDGE_LOOP ( 'NONE', ( #257, #128, #41, #152, #34 ) ) ;
#261 = PRODUCT_RELATED_PRODUCT_CATEGORY ( 'part', '', ( #74 ) ) ;
#262 = DIRECTION ( 'NONE',  ( -1.000000000000000000, 0.000000000000000000, 0.000000000000000000 ) ) ;
#263 = CIRCLE ( 'NONE', #116, 25.39999999999999503 ) ;
#264 = VECTOR ( 'NONE', #56, 1000.000000000000000 ) ;
#265 = EDGE_CURVE ( 'NONE', #235, #208, #207, .T. ) ;
#266 = ORIENTED_EDGE ( 'NONE', *, *, #154, .T. ) ;
#267 = EDGE_CURVE ( 'NONE', #36, #170, #51, .T. ) ;
#268 = DIRECTION ( 'NONE',  ( 0.000000000000000000, 0.000000000000000000, -1.000000000000000000 ) ) ;
#269 = LINE ( 'NONE', #227, #44 ) ;
#270 = DIRECTION ( 'NONE',  ( 0.7071067811866716957, 8.659560562356452648E-17, -0.7071067811864233388 ) ) ;
#271 = DIRECTION ( 'NONE',  ( -1.000000000000000000, 1.224646799147353207E-16, 0.000000000000000000 ) ) ;
#272 = FILL_AREA_STYLE_COLOUR ( '', #226 ) ;
#273 = AXIS2_PLACEMENT_3D ( 'NONE', #88, #110, #66 ) ;
#274 = VERTEX_POINT ( 'NONE', #211 ) ;
#275 = CARTESIAN_POINT ( 'NONE',  ( 0.000000000000000000, 0.000000000000000000, 17.66798998684060251 ) ) ;
#276 = ORIENTED_EDGE ( 'NONE', *, *, #140, .F. ) ;
#277 = ORIENTED_EDGE ( 'NONE', *, *, #267, .T. ) ;
#278 = DIRECTION ( 'NONE',  ( -1.000000000000000000, 1.224646799147353207E-16, 0.000000000000000000 ) ) ;
#279 = AXIS2_PLACEMENT_3D ( 'NONE', #30, #70, #178 ) ;
#280 = EDGE_LOOP ( 'NONE', ( #198, #16, #171, #277 ) ) ;
#281 = SHAPE_DEFINITION_REPRESENTATION ( #229, #79 ) ;
#282 = FILL_AREA_STYLE ('',( #190 ) ) ;
ENDSEC;
END-ISO-10303-21;
