ISO-10303-21;
HEADER;
FILE_DESCRIPTION (( 'STEP AP214' ),
    '1' );
FILE_NAME ('GLM2-050B-100-UV.STEP',
    '2024-08-09T02:50:02',
    ( 'Windows User' ),
    ( 'P R C' ),
    'SwSTEP 2.0',
    'SolidWorks 2022',
    '' );
FILE_SCHEMA (( 'AUTOMOTIVE_DESIGN' ));
ENDSEC;

DATA;
#1 = UNCERTAINTY_MEASURE_WITH_UNIT (LENGTH_MEASURE( 1.000000000000000082E-05 ), #156, 'distance_accuracy_value', 'NONE');
#2 = DIRECTION ( 'NONE',  ( -1.000000000000000000, 0.000000000000000000, 0.000000000000000000 ) ) ;
#3 = ADVANCED_FACE ( 'NONE', ( #103 ), #191, .T. ) ;
#4 = SPHERICAL_SURFACE ( 'NONE', #89, 30.55000000000000071 ) ;
#5 = AXIS2_PLACEMENT_3D ( 'NONE', #68, #2, #88 ) ;
#6 = PRESENTATION_LAYER_ASSIGNMENT (  '', '', ( #18 ) ) ;
#7 = DIRECTION ( 'NONE',  ( -1.000000000000000000, 0.000000000000000000, 0.000000000000000000 ) ) ;
#8 = CARTESIAN_POINT ( 'NONE',  ( 0.000000000000000000, 0.000000000000000000, 16.15044116531086260 ) ) ;
#9 = DIRECTION ( 'NONE',  ( -0.000000000000000000, -0.000000000000000000, -1.000000000000000000 ) ) ;
#10 = CIRCLE ( 'NONE', #61, 25.24955883468912532 ) ;
#11 = DIRECTION ( 'NONE',  ( -0.000000000000000000, -0.000000000000000000, 1.000000000000000000 ) ) ;
#12 = FILL_AREA_STYLE ('',( #138 ) ) ;
#13 = UNCERTAINTY_MEASURE_WITH_UNIT (LENGTH_MEASURE( 1.000000000000000082E-05 ), #185, 'distance_accuracy_value', 'NONE');
#14 = EDGE_CURVE ( 'NONE', #258, #259, #84, .T. ) ;
#15 = ADVANCED_FACE ( 'NONE', ( #101 ), #169, .T. ) ;
#16 = DIRECTION ( 'NONE',  ( 1.000000000000000000, 0.000000000000000000, 0.000000000000000000 ) ) ;
#17 = CIRCLE ( 'NONE', #168, 25.39999999999999503 ) ;
#18 = STYLED_ITEM ( 'NONE', ( #276 ), #57 ) ;
#19 = CARTESIAN_POINT ( 'NONE',  ( -25.39999999999999858, 0.000000000000000000, 20.00000000000000000 ) ) ;
#20 = CARTESIAN_POINT ( 'NONE',  ( -3.110602869834276471E-15, -25.39999999999999858, 15.00000000000000178 ) ) ;
#21 = CONICAL_SURFACE ( 'NONE', #241, 25.24955883468912177, 0.7853981633973560195 ) ;
#22 = EDGE_LOOP ( 'NONE', ( #278, #217, #140, #239 ) ) ;
#23 =( NAMED_UNIT ( * ) PLANE_ANGLE_UNIT ( ) SI_UNIT ( $, .RADIAN. ) );
#24 = ORIENTED_EDGE ( 'NONE', *, *, #157, .F. ) ;
#25 = ORIENTED_EDGE ( 'NONE', *, *, #223, .T. ) ;
#26 = ORIENTED_EDGE ( 'NONE', *, *, #157, .T. ) ;
#27 = CARTESIAN_POINT ( 'NONE',  ( 0.000000000000000000, 0.000000000000000000, 16.15044116531086260 ) ) ;
#28 = CONICAL_SURFACE ( 'NONE', #182, 25.24955883468912177, 0.7853981633973560195 ) ;
#29 = PRODUCT_RELATED_PRODUCT_CATEGORY ( 'part', '', ( #280 ) ) ;
#30 = SPHERICAL_SURFACE ( 'NONE', #228, 80.93999999999998352 ) ;
#31 = CARTESIAN_POINT ( 'NONE',  ( 0.000000000000000000, 0.000000000000000000, 93.05130838183561082 ) ) ;
#32 = AXIS2_PLACEMENT_3D ( 'NONE', #27, #65, #85 ) ;
#33 = AXIS2_PLACEMENT_3D ( 'NONE', #179, #268, #164 ) ;
#34 = CARTESIAN_POINT ( 'NONE',  ( 25.24955883468912177, 3.092179140678480573E-15, 16.15044116531087681 ) ) ;
#35 = FACE_OUTER_BOUND ( 'NONE', #238, .T. ) ;
#36 = CARTESIAN_POINT ( 'NONE',  ( 0.000000000000000000, 0.000000000000000000, 93.05130838183561082 ) ) ;
#37 = CARTESIAN_POINT ( 'NONE',  ( 0.000000000000000000, 0.000000000000000000, 16.15044116531087681 ) ) ;
#38 = DIRECTION ( 'NONE',  ( -1.000000000000000000, 1.224646799147353207E-16, 0.000000000000000000 ) ) ;
#39 = CIRCLE ( 'NONE', #243, 30.55000000000000071 ) ;
#40 = CARTESIAN_POINT ( 'NONE',  ( 0.000000000000000000, 4.956145596149337094E-15, 12.11130838183563441 ) ) ;
#41 = ORIENTED_EDGE ( 'NONE', *, *, #14, .F. ) ;
#42 = ORIENTED_EDGE ( 'NONE', *, *, #14, .T. ) ;
#43 = EDGE_CURVE ( 'NONE', #165, #240, #17, .T. ) ;
#44 = VERTEX_POINT ( 'NONE', #194 ) ;
#45 = ORIENTED_EDGE ( 'NONE', *, *, #189, .F. ) ;
#46 = EDGE_LOOP ( 'NONE', ( #59, #192, #144, #209 ) ) ;
#47 = CIRCLE ( 'NONE', #133, 25.39999999999999858 ) ;
#48 = DIRECTION ( 'NONE',  ( -0.000000000000000000, -0.000000000000000000, -1.000000000000000000 ) ) ;
#49 = DIRECTION ( 'NONE',  ( 1.000000000000000000, 0.000000000000000000, 0.000000000000000000 ) ) ;
#50 = DIRECTION ( 'NONE',  ( 0.000000000000000000, 1.000000000000000000, 0.000000000000000000 ) ) ;
#51 = DIRECTION ( 'NONE',  ( 1.000000000000000000, 0.000000000000000000, 0.000000000000000000 ) ) ;
#52 = CIRCLE ( 'NONE', #212, 25.24955883468912532 ) ;
#53 = MECHANICAL_DESIGN_GEOMETRIC_PRESENTATION_REPRESENTATION (  '', ( #18 ), #211 ) ;
#54 = FACE_OUTER_BOUND ( 'NONE', #235, .T. ) ;
#55 =( NAMED_UNIT ( * ) SI_UNIT ( $, .STERADIAN. ) SOLID_ANGLE_UNIT ( ) );
#56 = CARTESIAN_POINT ( 'NONE',  ( -25.39999999999999858, 0.000000000000000000, 15.99999999999997335 ) ) ;
#57 = ADVANCED_BREP_SHAPE_REPRESENTATION ( 'GLM2-050B-100-UV', ( #198, #33 ), #108 ) ;
#58 = DIRECTION ( 'NONE',  ( -1.224646799147353207E-16, -1.000000000000000000, 0.000000000000000000 ) ) ;
#59 = ORIENTED_EDGE ( 'NONE', *, *, #244, .F. ) ;
#60 = DIRECTION ( 'NONE',  ( -1.000000000000000000, 0.000000000000000000, 0.000000000000000000 ) ) ;
#61 = AXIS2_PLACEMENT_3D ( 'NONE', #8, #76, #126 ) ;
#62 = SHAPE_DEFINITION_REPRESENTATION ( #204, #57 ) ;
#63 = SURFACE_STYLE_FILL_AREA ( #12 ) ;
#64 = EDGE_CURVE ( 'NONE', #259, #44, #52, .T. ) ;
#65 = DIRECTION ( 'NONE',  ( -0.000000000000000000, -0.000000000000000000, 1.000000000000000000 ) ) ;
#66 = ADVANCED_FACE ( 'NONE', ( #35 ), #4, .T. ) ;
#67 = ORIENTED_EDGE ( 'NONE', *, *, #119, .F. ) ;
#68 = CARTESIAN_POINT ( 'NONE',  ( 0.000000000000000000, 0.000000000000000000, 31.97476067577979819 ) ) ;
#69 = VERTEX_POINT ( 'NONE', #175 ) ;
#70 = PRODUCT_DEFINITION_CONTEXT ( 'detailed design', #170, 'design' ) ;
#71 = DIRECTION ( 'NONE',  ( 0.000000000000000000, 0.000000000000000000, -1.000000000000000000 ) ) ;
#72 = CYLINDRICAL_SURFACE ( 'NONE', #174, 25.39999999999999858 ) ;
#73 = EDGE_CURVE ( 'NONE', #240, #82, #236, .T. ) ;
#74 = CARTESIAN_POINT ( 'NONE',  ( 25.39999999999999503, 3.110602869834276471E-15, 15.00000000000000000 ) ) ;
#75 = DIRECTION ( 'NONE',  ( -1.000000000000000000, 0.000000000000000000, 0.000000000000000000 ) ) ;
#76 = DIRECTION ( 'NONE',  ( -0.000000000000000000, -0.000000000000000000, 1.000000000000000000 ) ) ;
#77 = AXIS2_PLACEMENT_3D ( 'NONE', #115, #230, #16 ) ;
#78 = CIRCLE ( 'NONE', #112, 80.93999999999998352 ) ;
#79 = SURFACE_STYLE_USAGE ( .BOTH. , #186 ) ;
#80 = ADVANCED_FACE ( 'NONE', ( #154 ), #222, .F. ) ;
#81 = MECHANICAL_DESIGN_GEOMETRIC_PRESENTATION_REPRESENTATION (  '', ( #257 ), #95 ) ;
#82 = VERTEX_POINT ( 'NONE', #227 ) ;
#83 = EDGE_LOOP ( 'NONE', ( #216, #87, #102, #145, #279 ) ) ;
#84 = CIRCLE ( 'NONE', #32, 25.24955883468912532 ) ;
#85 = DIRECTION ( 'NONE',  ( 1.000000000000000000, 0.000000000000000000, 0.000000000000000000 ) ) ;
#86 = VECTOR ( 'NONE', #161, 1000.000000000000000 ) ;
#87 = ORIENTED_EDGE ( 'NONE', *, *, #119, .T. ) ;
#88 = DIRECTION ( 'NONE',  ( 0.000000000000000000, 1.000000000000000000, 0.000000000000000000 ) ) ;
#89 = AXIS2_PLACEMENT_3D ( 'NONE', #151, #245, #50 ) ;
#90 = CARTESIAN_POINT ( 'NONE',  ( 0.000000000000000000, 0.000000000000000000, 15.00000000000000000 ) ) ;
#91 = EDGE_CURVE ( 'NONE', #258, #171, #153, .T. ) ;
#92 = FACE_OUTER_BOUND ( 'NONE', #261, .T. ) ;
#93 = CARTESIAN_POINT ( 'NONE',  ( 0.000000000000000000, 0.000000000000000000, 16.15044116531087681 ) ) ;
#94 = AXIS2_PLACEMENT_3D ( 'NONE', #128, #225, #131 ) ;
#95 =( GEOMETRIC_REPRESENTATION_CONTEXT ( 3 ) GLOBAL_UNCERTAINTY_ASSIGNED_CONTEXT ( ( #172 ) ) GLOBAL_UNIT_ASSIGNED_CONTEXT ( ( #163, #270, #113 ) ) REPRESENTATION_CONTEXT ( 'NONE', 'WORKASPACE' ) );
#96 = SURFACE_SIDE_STYLE ('',( #250 ) ) ;
#97 = CARTESIAN_POINT ( 'NONE',  ( 0.000000000000000000, 0.000000000000000000, 31.97476067577979819 ) ) ;
#98 =( NAMED_UNIT ( * ) SI_UNIT ( $, .STERADIAN. ) SOLID_ANGLE_UNIT ( ) );
#99 = LINE ( 'NONE', #19, #220 ) ;
#100 = CIRCLE ( 'NONE', #256, 25.39999999999999503 ) ;
#101 = FACE_OUTER_BOUND ( 'NONE', #22, .T. ) ;
#102 = ORIENTED_EDGE ( 'NONE', *, *, #273, .T. ) ;
#103 = FACE_OUTER_BOUND ( 'NONE', #83, .T. ) ;
#104 = ORIENTED_EDGE ( 'NONE', *, *, #91, .T. ) ;
#105 = DIRECTION ( 'NONE',  ( 0.7071067811864824026, 8.659560562354135369E-17, -0.7071067811866127428 ) ) ;
#106 = EDGE_CURVE ( 'NONE', #139, #171, #47, .T. ) ;
#107 = CARTESIAN_POINT ( 'NONE',  ( 0.000000000000000000, 0.000000000000000000, 15.99999999999997335 ) ) ;
#108 =( GEOMETRIC_REPRESENTATION_CONTEXT ( 3 ) GLOBAL_UNCERTAINTY_ASSIGNED_CONTEXT ( ( #1 ) ) GLOBAL_UNIT_ASSIGNED_CONTEXT ( ( #156, #229, #98 ) ) REPRESENTATION_CONTEXT ( 'NONE', 'WORKASPACE' ) );
#109 = DIRECTION ( 'NONE',  ( -0.7071067811864824026, 0.000000000000000000, -0.7071067811866127428 ) ) ;
#110 = CARTESIAN_POINT ( 'NONE',  ( 0.000000000000000000, 0.000000000000000000, 20.00000000000000000 ) ) ;
#111 = DIRECTION ( 'NONE',  ( 1.000000000000000000, 0.000000000000000000, 0.000000000000000000 ) ) ;
#112 = AXIS2_PLACEMENT_3D ( 'NONE', #36, #111, #71 ) ;
#113 =( NAMED_UNIT ( * ) SI_UNIT ( $, .STERADIAN. ) SOLID_ANGLE_UNIT ( ) );
#114 = EDGE_CURVE ( 'NONE', #281, #165, #100, .T. ) ;
#115 = CARTESIAN_POINT ( 'NONE',  ( 0.000000000000000000, 0.000000000000000000, 16.15044116531086260 ) ) ;
#116 = CIRCLE ( 'NONE', #282, 80.93999999999998352 ) ;
#117 = SURFACE_STYLE_USAGE ( .BOTH. , #96 ) ;
#118 = ORIENTED_EDGE ( 'NONE', *, *, #244, .T. ) ;
#119 = EDGE_CURVE ( 'NONE', #171, #139, #275, .T. ) ;
#120 = ORIENTED_EDGE ( 'NONE', *, *, #188, .F. ) ;
#121 = COLOUR_RGB ( '',1.000000000000000000, 1.000000000000000000, 1.000000000000000000 ) ;
#122 = DIRECTION ( 'NONE',  ( -0.000000000000000000, -0.000000000000000000, 1.000000000000000000 ) ) ;
#123 = ORIENTED_EDGE ( 'NONE', *, *, #64, .F. ) ;
#124 = EDGE_LOOP ( 'NONE', ( #190, #25, #162, #255, #137 ) ) ;
#125 = ORIENTED_EDGE ( 'NONE', *, *, #91, .F. ) ;
#126 = DIRECTION ( 'NONE',  ( 1.000000000000000000, 0.000000000000000000, 0.000000000000000000 ) ) ;
#127 = AXIS2_PLACEMENT_3D ( 'NONE', #214, #48, #219 ) ;
#128 = CARTESIAN_POINT ( 'NONE',  ( 0.000000000000000000, 0.000000000000000000, 15.00000000000000000 ) ) ;
#129 = DIRECTION ( 'NONE',  ( 0.000000000000000000, 1.000000000000000000, 0.000000000000000000 ) ) ;
#130 = PRODUCT_CONTEXT ( 'NONE', #148, 'mechanical' ) ;
#131 = DIRECTION ( 'NONE',  ( 1.000000000000000000, 0.000000000000000000, 0.000000000000000000 ) ) ;
#132 = CARTESIAN_POINT ( 'NONE',  ( 25.39999999999999858, 3.110602869834276865E-15, 20.00000000000000000 ) ) ;
#133 = AXIS2_PLACEMENT_3D ( 'NONE', #107, #242, #51 ) ;
#134 = CARTESIAN_POINT ( 'NONE',  ( 0.000000000000000000, 0.000000000000000000, 93.05130838183561082 ) ) ;
#135 = ADVANCED_FACE ( 'NONE', ( #221 ), #72, .T. ) ;
#136 = DIRECTION ( 'NONE',  ( -1.224646799147353207E-16, -1.000000000000000000, 0.000000000000000000 ) ) ;
#137 = ORIENTED_EDGE ( 'NONE', *, *, #273, .F. ) ;
#138 = FILL_AREA_STYLE_COLOUR ( '', #121 ) ;
#139 = VERTEX_POINT ( 'NONE', #56 ) ;
#140 = ORIENTED_EDGE ( 'NONE', *, *, #43, .F. ) ;
#141 = CARTESIAN_POINT ( 'NONE',  ( 0.000000000000000000, 0.000000000000000000, 15.00000000000000000 ) ) ;
#142 = VECTOR ( 'NONE', #105, 999.9999999999998863 ) ;
#143 = ADVANCED_FACE ( 'NONE', ( #54 ), #21, .T. ) ;
#144 = ORIENTED_EDGE ( 'NONE', *, *, #64, .T. ) ;
#145 = ORIENTED_EDGE ( 'NONE', *, *, #188, .T. ) ;
#146 = ORIENTED_EDGE ( 'NONE', *, *, #196, .T. ) ;
#147 = AXIS2_PLACEMENT_3D ( 'NONE', #97, #38, #136 ) ;
#148 = APPLICATION_CONTEXT ( 'automotive_design' ) ;
#149 = EDGE_CURVE ( 'NONE', #44, #69, #10, .T. ) ;
#150 = DIRECTION ( 'NONE',  ( -1.000000000000000000, 0.000000000000000000, 0.000000000000000000 ) ) ;
#151 = CARTESIAN_POINT ( 'NONE',  ( 0.000000000000000000, 0.000000000000000000, 31.97476067577979819 ) ) ;
#152 = CARTESIAN_POINT ( 'NONE',  ( 0.000000000000000000, 1.870647985697581912E-15, 1.424760675779797259 ) ) ;
#153 = LINE ( 'NONE', #34, #142 ) ;
#154 = FACE_OUTER_BOUND ( 'NONE', #46, .T. ) ;
#155 = CIRCLE ( 'NONE', #77, 25.24955883468912532 ) ;
#156 =( LENGTH_UNIT ( ) NAMED_UNIT ( * ) SI_UNIT ( .MILLI., .METRE. ) );
#157 = EDGE_CURVE ( 'NONE', #44, #139, #176, .T. ) ;
#158 = DIRECTION ( 'NONE',  ( 1.000000000000000000, -0.000000000000000000, 0.000000000000000000 ) ) ;
#159 = PRODUCT_DEFINITION ( 'Î´Öª', '', #184, #70 ) ;
#160 = DIRECTION ( 'NONE',  ( 0.000000000000000000, 0.000000000000000000, -1.000000000000000000 ) ) ;
#161 = DIRECTION ( 'NONE',  ( -0.000000000000000000, -0.000000000000000000, -1.000000000000000000 ) ) ;
#162 = ORIENTED_EDGE ( 'NONE', *, *, #43, .T. ) ;
#163 =( LENGTH_UNIT ( ) NAMED_UNIT ( * ) SI_UNIT ( .MILLI., .METRE. ) );
#164 = DIRECTION ( 'NONE',  ( 1.000000000000000000, 0.000000000000000000, 0.000000000000000000 ) ) ;
#165 = VERTEX_POINT ( 'NONE', #74 ) ;
#166 = ADVANCED_FACE ( 'NONE', ( #92 ), #30, .F. ) ;
#167 = VERTEX_POINT ( 'NONE', #152 ) ;
#168 = AXIS2_PLACEMENT_3D ( 'NONE', #141, #122, #173 ) ;
#169 = SPHERICAL_SURFACE ( 'NONE', #5, 30.55000000000000071 ) ;
#170 = APPLICATION_CONTEXT ( 'automotive_design' ) ;
#171 = VERTEX_POINT ( 'NONE', #249 ) ;
#172 = UNCERTAINTY_MEASURE_WITH_UNIT (LENGTH_MEASURE( 1.000000000000000082E-05 ), #163, 'distance_accuracy_value', 'NONE');
#173 = DIRECTION ( 'NONE',  ( 1.000000000000000000, 0.000000000000000000, 0.000000000000000000 ) ) ;
#174 = AXIS2_PLACEMENT_3D ( 'NONE', #110, #9, #197 ) ;
#175 = CARTESIAN_POINT ( 'NONE',  ( -3.092179140678477812E-15, -25.24955883468910045, 16.15044116531086260 ) ) ;
#176 = LINE ( 'NONE', #266, #263 ) ;
#177 = CARTESIAN_POINT ( 'NONE',  ( 0.000000000000000000, 0.000000000000000000, 15.00000000000000000 ) ) ;
#178 = AXIS2_PLACEMENT_3D ( 'NONE', #195, #226, #265 ) ;
#179 = CARTESIAN_POINT ( 'NONE',  ( 0.000000000000000000, 0.000000000000000000, 0.000000000000000000 ) ) ;
#180 = CARTESIAN_POINT ( 'NONE',  ( 0.000000000000000000, 0.000000000000000000, 16.15044116531086260 ) ) ;
#181 = DIRECTION ( 'NONE',  ( -0.000000000000000000, -0.000000000000000000, 1.000000000000000000 ) ) ;
#182 = AXIS2_PLACEMENT_3D ( 'NONE', #37, #160, #60 ) ;
#183 = CARTESIAN_POINT ( 'NONE',  ( 25.24955883468912532, 3.101391005256379311E-15, 16.15044116531086260 ) ) ;
#184 = PRODUCT_DEFINITION_FORMATION_WITH_SPECIFIED_SOURCE ( 'ÈÎºÎ', '', #280, .NOT_KNOWN. ) ;
#185 =( LENGTH_UNIT ( ) NAMED_UNIT ( * ) SI_UNIT ( .MILLI., .METRE. ) );
#186 = SURFACE_SIDE_STYLE ('',( #63 ) ) ;
#187 = ORIENTED_EDGE ( 'NONE', *, *, #246, .T. ) ;
#188 = EDGE_CURVE ( 'NONE', #82, #281, #218, .T. ) ;
#189 = EDGE_CURVE ( 'NONE', #193, #259, #78, .T. ) ;
#190 = ORIENTED_EDGE ( 'NONE', *, *, #106, .T. ) ;
#191 = CYLINDRICAL_SURFACE ( 'NONE', #127, 25.39999999999999858 ) ;
#192 = ORIENTED_EDGE ( 'NONE', *, *, #189, .T. ) ;
#193 = VERTEX_POINT ( 'NONE', #40 ) ;
#194 = CARTESIAN_POINT ( 'NONE',  ( -25.24955883468912532, 0.000000000000000000, 16.15044116531086260 ) ) ;
#195 = CARTESIAN_POINT ( 'NONE',  ( 0.000000000000000000, 0.000000000000000000, 15.99999999999997335 ) ) ;
#196 = EDGE_CURVE ( 'NONE', #167, #281, #200, .T. ) ;
#197 = DIRECTION ( 'NONE',  ( -1.000000000000000000, 0.000000000000000000, 0.000000000000000000 ) ) ;
#198 = MANIFOLD_SOLID_BREP ( 'µ¹½Ç1', #224 ) ;
#199 = DIRECTION ( 'NONE',  ( 1.000000000000000000, 0.000000000000000000, 0.000000000000000000 ) ) ;
#200 = CIRCLE ( 'NONE', #147, 30.55000000000000071 ) ;
#201 = DIRECTION ( 'NONE',  ( -0.000000000000000000, -0.000000000000000000, 1.000000000000000000 ) ) ;
#202 = APPLICATION_PROTOCOL_DEFINITION ( 'draft international standard', 'automotive_design', 1998, #148 ) ;
#203 = COLOUR_RGB ( '',1.000000000000000000, 1.000000000000000000, 1.000000000000000000 ) ;
#204 = PRODUCT_DEFINITION_SHAPE ( 'NONE', 'NONE',  #159 ) ;
#205 = LINE ( 'NONE', #132, #86 ) ;
#206 = FACE_OUTER_BOUND ( 'NONE', #234, .T. ) ;
#207 = DIRECTION ( 'NONE',  ( 0.000000000000000000, 0.000000000000000000, -1.000000000000000000 ) ) ;
#208 = FILL_AREA_STYLE_COLOUR ( '', #203 ) ;
#209 = ORIENTED_EDGE ( 'NONE', *, *, #149, .T. ) ;
#210 = APPLICATION_PROTOCOL_DEFINITION ( 'draft international standard', 'automotive_design', 1998, #170 ) ;
#211 =( GEOMETRIC_REPRESENTATION_CONTEXT ( 3 ) GLOBAL_UNCERTAINTY_ASSIGNED_CONTEXT ( ( #13 ) ) GLOBAL_UNIT_ASSIGNED_CONTEXT ( ( #185, #23, #55 ) ) REPRESENTATION_CONTEXT ( 'NONE', 'WORKASPACE' ) );
#212 = AXIS2_PLACEMENT_3D ( 'NONE', #180, #181, #49 ) ;
#213 = EDGE_CURVE ( 'NONE', #167, #240, #39, .T. ) ;
#214 = CARTESIAN_POINT ( 'NONE',  ( 0.000000000000000000, 0.000000000000000000, 20.00000000000000000 ) ) ;
#215 = ORIENTED_EDGE ( 'NONE', *, *, #73, .F. ) ;
#216 = ORIENTED_EDGE ( 'NONE', *, *, #223, .F. ) ;
#217 = ORIENTED_EDGE ( 'NONE', *, *, #213, .T. ) ;
#218 = CIRCLE ( 'NONE', #94, 25.39999999999999503 ) ;
#219 = DIRECTION ( 'NONE',  ( -1.000000000000000000, 0.000000000000000000, 0.000000000000000000 ) ) ;
#220 = VECTOR ( 'NONE', #253, 1000.000000000000000 ) ;
#221 = FACE_OUTER_BOUND ( 'NONE', #124, .T. ) ;
#222 = SPHERICAL_SURFACE ( 'NONE', #272, 80.93999999999998352 ) ;
#223 = EDGE_CURVE ( 'NONE', #171, #165, #205, .T. ) ;
#224 = CLOSED_SHELL ( 'NONE', ( #264, #66, #166, #135, #3, #80, #15, #143 ) ) ;
#225 = DIRECTION ( 'NONE',  ( -0.000000000000000000, -0.000000000000000000, 1.000000000000000000 ) ) ;
#226 = DIRECTION ( 'NONE',  ( 0.000000000000000000, 0.000000000000000000, -1.000000000000000000 ) ) ;
#227 = CARTESIAN_POINT ( 'NONE',  ( -25.39999999999999503, 0.000000000000000000, 15.00000000000000000 ) ) ;
#228 = AXIS2_PLACEMENT_3D ( 'NONE', #267, #75, #129 ) ;
#229 =( NAMED_UNIT ( * ) PLANE_ANGLE_UNIT ( ) SI_UNIT ( $, .RADIAN. ) );
#230 = DIRECTION ( 'NONE',  ( -0.000000000000000000, -0.000000000000000000, 1.000000000000000000 ) ) ;
#231 = FILL_AREA_STYLE ('',( #208 ) ) ;
#232 = DIRECTION ( 'NONE',  ( -1.000000000000000000, 1.224646799147353207E-16, 0.000000000000000000 ) ) ;
#233 = PRESENTATION_LAYER_ASSIGNMENT (  '', '', ( #257 ) ) ;
#234 = EDGE_LOOP ( 'NONE', ( #41, #104, #262, #24, #123 ) ) ;
#235 = EDGE_LOOP ( 'NONE', ( #125, #277, #237, #26, #67 ) ) ;
#236 = CIRCLE ( 'NONE', #251, 25.39999999999999503 ) ;
#237 = ORIENTED_EDGE ( 'NONE', *, *, #149, .F. ) ;
#238 = EDGE_LOOP ( 'NONE', ( #260, #146, #120, #215 ) ) ;
#239 = ORIENTED_EDGE ( 'NONE', *, *, #114, .F. ) ;
#240 = VERTEX_POINT ( 'NONE', #254 ) ;
#241 = AXIS2_PLACEMENT_3D ( 'NONE', #93, #269, #7 ) ;
#242 = DIRECTION ( 'NONE',  ( 0.000000000000000000, 0.000000000000000000, -1.000000000000000000 ) ) ;
#243 = AXIS2_PLACEMENT_3D ( 'NONE', #252, #158, #207 ) ;
#244 = EDGE_CURVE ( 'NONE', #193, #69, #116, .T. ) ;
#245 = DIRECTION ( 'NONE',  ( -1.000000000000000000, 0.000000000000000000, 0.000000000000000000 ) ) ;
#246 = EDGE_CURVE ( 'NONE', #69, #258, #155, .T. ) ;
#247 = DIRECTION ( 'NONE',  ( 0.000000000000000000, 1.000000000000000000, 0.000000000000000000 ) ) ;
#248 = DIRECTION ( 'NONE',  ( 1.000000000000000000, 0.000000000000000000, 0.000000000000000000 ) ) ;
#249 = CARTESIAN_POINT ( 'NONE',  ( 25.39999999999999858, 3.110602869834276865E-15, 15.99999999999997335 ) ) ;
#250 = SURFACE_STYLE_FILL_AREA ( #231 ) ;
#251 = AXIS2_PLACEMENT_3D ( 'NONE', #177, #201, #199 ) ;
#252 = CARTESIAN_POINT ( 'NONE',  ( 0.000000000000000000, 0.000000000000000000, 31.97476067577979819 ) ) ;
#253 = DIRECTION ( 'NONE',  ( -0.000000000000000000, -0.000000000000000000, -1.000000000000000000 ) ) ;
#254 = CARTESIAN_POINT ( 'NONE',  ( 0.000000000000000000, 25.39999999999999858, 15.00000000000000178 ) ) ;
#255 = ORIENTED_EDGE ( 'NONE', *, *, #73, .T. ) ;
#256 = AXIS2_PLACEMENT_3D ( 'NONE', #90, #11, #248 ) ;
#257 = STYLED_ITEM ( 'NONE', ( #271 ), #198 ) ;
#258 = VERTEX_POINT ( 'NONE', #183 ) ;
#259 = VERTEX_POINT ( 'NONE', #274 ) ;
#260 = ORIENTED_EDGE ( 'NONE', *, *, #213, .F. ) ;
#261 = EDGE_LOOP ( 'NONE', ( #45, #118, #187, #42 ) ) ;
#262 = ORIENTED_EDGE ( 'NONE', *, *, #106, .F. ) ;
#263 = VECTOR ( 'NONE', #109, 999.9999999999998863 ) ;
#264 = ADVANCED_FACE ( 'NONE', ( #206 ), #28, .T. ) ;
#265 = DIRECTION ( 'NONE',  ( 1.000000000000000000, 0.000000000000000000, 0.000000000000000000 ) ) ;
#266 = CARTESIAN_POINT ( 'NONE',  ( -25.24955883468912177, 0.000000000000000000, 16.15044116531087681 ) ) ;
#267 = CARTESIAN_POINT ( 'NONE',  ( 0.000000000000000000, 0.000000000000000000, 93.05130838183561082 ) ) ;
#268 = DIRECTION ( 'NONE',  ( 0.000000000000000000, 0.000000000000000000, 1.000000000000000000 ) ) ;
#269 = DIRECTION ( 'NONE',  ( 0.000000000000000000, 0.000000000000000000, -1.000000000000000000 ) ) ;
#270 =( NAMED_UNIT ( * ) PLANE_ANGLE_UNIT ( ) SI_UNIT ( $, .RADIAN. ) );
#271 = PRESENTATION_STYLE_ASSIGNMENT (( #117 ) ) ;
#272 = AXIS2_PLACEMENT_3D ( 'NONE', #31, #150, #247 ) ;
#273 = EDGE_CURVE ( 'NONE', #139, #82, #99, .T. ) ;
#274 = CARTESIAN_POINT ( 'NONE',  ( 0.000000000000000000, 25.24955883468910045, 16.15044116531086260 ) ) ;
#275 = CIRCLE ( 'NONE', #178, 25.39999999999999858 ) ;
#276 = PRESENTATION_STYLE_ASSIGNMENT (( #79 ) ) ;
#277 = ORIENTED_EDGE ( 'NONE', *, *, #246, .F. ) ;
#278 = ORIENTED_EDGE ( 'NONE', *, *, #196, .F. ) ;
#279 = ORIENTED_EDGE ( 'NONE', *, *, #114, .T. ) ;
#280 = PRODUCT ( 'GLM2-050B-100-UV', 'GLM2-050B-100-UV', '', ( #130 ) ) ;
#281 = VERTEX_POINT ( 'NONE', #20 ) ;
#282 = AXIS2_PLACEMENT_3D ( 'NONE', #134, #232, #58 ) ;
ENDSEC;
END-ISO-10303-21;
