ISO-10303-21;
HEADER;
FILE_DESCRIPTION (( 'STEP AP214' ),
    '1' );
FILE_NAME ('GLM2-025B-500-UV.STEP',
    '2024-08-09T02:47:24',
    ( 'Windows User' ),
    ( 'P R C' ),
    'SwSTEP 2.0',
    'SolidWorks 2022',
    '' );
FILE_SCHEMA (( 'AUTOMOTIVE_DESIGN' ));
ENDSEC;

DATA;
#1 = DIRECTION ( 'NONE',  ( -0.000000000000000000, -0.000000000000000000, 1.000000000000000000 ) ) ;
#2 = ORIENTED_EDGE ( 'NONE', *, *, #319, .T. ) ;
#3 = PRODUCT_DEFINITION_FORMATION_WITH_SPECIFIED_SOURCE ( 'ÈÎºÎ', '', #100, .NOT_KNOWN. ) ;
#4 = EDGE_LOOP ( 'NONE', ( #202, #2, #142, #34, #212 ) ) ;
#5 = EDGE_LOOP ( 'NONE', ( #81, #166, #268, #78 ) ) ;
#6 = ORIENTED_EDGE ( 'NONE', *, *, #240, .T. ) ;
#7 = CIRCLE ( 'NONE', #56, 166.7500000000000000 ) ;
#8 = AXIS2_PLACEMENT_3D ( 'NONE', #127, #177, #201 ) ;
#9 = EDGE_CURVE ( 'NONE', #139, #241, #332, .T. ) ;
#10 = EDGE_LOOP ( 'NONE', ( #111, #196, #269, #118 ) ) ;
#11 = CARTESIAN_POINT ( 'NONE',  ( 0.000000000000000000, 0.000000000000000000, 3.984896188597097932 ) ) ;
#12 = SURFACE_SIDE_STYLE ('',( #217 ) ) ;
#13 = ORIENTED_EDGE ( 'NONE', *, *, #219, .T. ) ;
#14 = ORIENTED_EDGE ( 'NONE', *, *, #120, .F. ) ;
#15 = DIRECTION ( 'NONE',  ( 0.000000000000000000, 0.000000000000000000, -1.000000000000000000 ) ) ;
#16 = SHAPE_DEFINITION_REPRESENTATION ( #48, #152 ) ;
#17 = DIRECTION ( 'NONE',  ( 0.000000000000000000, 1.000000000000000000, 0.000000000000000000 ) ) ;
#18 = LINE ( 'NONE', #43, #105 ) ;
#19 = CYLINDRICAL_SURFACE ( 'NONE', #143, 12.69999999999999929 ) ;
#20 = DIRECTION ( 'NONE',  ( 0.000000000000000000, 1.000000000000000000, 0.000000000000000000 ) ) ;
#21 = DIRECTION ( 'NONE',  ( 0.6511983538683498995, 0.000000000000000000, 0.7589075727116915138 ) ) ;
#22 = CIRCLE ( 'NONE', #185, 12.50409250075131062 ) ;
#23 = EDGE_CURVE ( 'NONE', #275, #28, #82, .T. ) ;
#24 = CARTESIAN_POINT ( 'NONE',  ( 12.69999999999999929, 1.555301434917138433E-15, 4.217170936316433583 ) ) ;
#25 = CIRCLE ( 'NONE', #67, 12.69999999999999929 ) ;
#26 = EDGE_CURVE ( 'NONE', #300, #293, #236, .T. ) ;
#27 = VERTEX_POINT ( 'NONE', #191 ) ;
#28 = VERTEX_POINT ( 'NONE', #267 ) ;
#29 = ORIENTED_EDGE ( 'NONE', *, *, #285, .F. ) ;
#30 = ADVANCED_FACE ( 'NONE', ( #167 ), #66, .T. ) ;
#31 =( NAMED_UNIT ( * ) PLANE_ANGLE_UNIT ( ) SI_UNIT ( $, .RADIAN. ) );
#32 = VECTOR ( 'NONE', #224, 1000.000000000000114 ) ;
#33 = CARTESIAN_POINT ( 'NONE',  ( -12.69999999999999929, 1.555301434917138433E-15, 4.217170936316433583 ) ) ;
#34 = ORIENTED_EDGE ( 'NONE', *, *, #75, .F. ) ;
#35 = CARTESIAN_POINT ( 'NONE',  ( -12.69999999999999929, 0.000000000000000000, 4.217170936316433583 ) ) ;
#36 = LINE ( 'NONE', #33, #161 ) ;
#37 = CARTESIAN_POINT ( 'NONE',  ( 0.000000000000000000, 0.000000000000000000, 170.2656684345869564 ) ) ;
#38 = AXIS2_PLACEMENT_3D ( 'NONE', #200, #326, #20 ) ;
#39 = DIRECTION ( 'NONE',  ( -0.000000000000000000, -0.000000000000000000, -1.000000000000000000 ) ) ;
#40 = DIRECTION ( 'NONE',  ( 1.000000000000000000, 0.000000000000000000, 0.000000000000000000 ) ) ;
#41 = AXIS2_PLACEMENT_3D ( 'NONE', #74, #138, #50 ) ;
#42 = PRODUCT_DEFINITION ( 'Î´Öª', '', #3, #73 ) ;
#43 = CARTESIAN_POINT ( 'NONE',  ( 12.69999999999999929, 1.555301434917138433E-15, 10.00000000000000000 ) ) ;
#44 = ADVANCED_FACE ( 'NONE', ( #308 ), #265, .T. ) ;
#45 = CARTESIAN_POINT ( 'NONE',  ( 0.000000000000000000, 0.000000000000000000, 5.995907499248609440 ) ) ;
#46 = DIRECTION ( 'NONE',  ( 1.000000000000000000, 0.000000000000000000, 0.000000000000000000 ) ) ;
#47 = CIRCLE ( 'NONE', #188, 12.50069123197759424 ) ;
#48 = PRODUCT_DEFINITION_SHAPE ( 'NONE', 'NONE',  #42 ) ;
#49 = AXIS2_PLACEMENT_3D ( 'NONE', #278, #305, #149 ) ;
#50 = DIRECTION ( 'NONE',  ( -1.000000000000000000, 0.000000000000000000, 0.000000000000000000 ) ) ;
#51 = ORIENTED_EDGE ( 'NONE', *, *, #102, .F. ) ;
#52 = ORIENTED_EDGE ( 'NONE', *, *, #228, .T. ) ;
#53 = EDGE_LOOP ( 'NONE', ( #290, #242, #109, #221, #250 ) ) ;
#54 = ORIENTED_EDGE ( 'NONE', *, *, #266, .F. ) ;
#55 =( LENGTH_UNIT ( ) NAMED_UNIT ( * ) SI_UNIT ( .MILLI., .METRE. ) );
#56 = AXIS2_PLACEMENT_3D ( 'NONE', #68, #160, #264 ) ;
#57 = DIRECTION ( 'NONE',  ( 1.000000000000000000, 0.000000000000000000, 0.000000000000000000 ) ) ;
#58 = VERTEX_POINT ( 'NONE', #91 ) ;
#59 = AXIS2_PLACEMENT_3D ( 'NONE', #117, #175, #274 ) ;
#60 = CARTESIAN_POINT ( 'NONE',  ( 12.50069123197759424, 0.000000000000000000, 3.984896188597097932 ) ) ;
#61 = DIRECTION ( 'NONE',  ( -1.000000000000000000, 0.000000000000000000, 0.000000000000000000 ) ) ;
#62 = SURFACE_STYLE_FILL_AREA ( #301 ) ;
#63 = CARTESIAN_POINT ( 'NONE',  ( 0.000000000000000000, 0.000000000000000000, 4.217170936316433583 ) ) ;
#64 = DIRECTION ( 'NONE',  ( -1.000000000000000000, 0.000000000000000000, 0.000000000000000000 ) ) ;
#65 = PRODUCT_RELATED_PRODUCT_CATEGORY ( 'part', '', ( #100 ) ) ;
#66 = SPHERICAL_SURFACE ( 'NONE', #136, 166.7500000000000000 ) ;
#67 = AXIS2_PLACEMENT_3D ( 'NONE', #181, #209, #254 ) ;
#68 = CARTESIAN_POINT ( 'NONE',  ( 0.000000000000000000, 0.000000000000000000, 170.2656684345869564 ) ) ;
#69 = ADVANCED_FACE ( 'NONE', ( #262 ), #98, .T. ) ;
#70 = FACE_OUTER_BOUND ( 'NONE', #83, .T. ) ;
#71 = DIRECTION ( 'NONE',  ( -0.000000000000000000, -0.000000000000000000, 1.000000000000000000 ) ) ;
#72 = DIRECTION ( 'NONE',  ( 0.000000000000000000, 0.000000000000000000, -1.000000000000000000 ) ) ;
#73 = PRODUCT_DEFINITION_CONTEXT ( 'detailed design', #197, 'design' ) ;
#74 = CARTESIAN_POINT ( 'NONE',  ( 0.000000000000000000, 0.000000000000000000, 4.217170936316433583 ) ) ;
#75 = EDGE_CURVE ( 'NONE', #238, #139, #282, .T. ) ;
#76 =( GEOMETRIC_REPRESENTATION_CONTEXT ( 3 ) GLOBAL_UNCERTAINTY_ASSIGNED_CONTEXT ( ( #186 ) ) GLOBAL_UNIT_ASSIGNED_CONTEXT ( ( #170, #121, #223 ) ) REPRESENTATION_CONTEXT ( 'NONE', 'WORKASPACE' ) );
#77 = VERTEX_POINT ( 'NONE', #204 ) ;
#78 = ORIENTED_EDGE ( 'NONE', *, *, #23, .T. ) ;
#79 = ORIENTED_EDGE ( 'NONE', *, *, #219, .F. ) ;
#80 = CIRCLE ( 'NONE', #280, 12.69999999999999929 ) ;
#81 = ORIENTED_EDGE ( 'NONE', *, *, #311, .F. ) ;
#82 = CIRCLE ( 'NONE', #234, 12.50409250075131062 ) ;
#83 = EDGE_LOOP ( 'NONE', ( #215, #292, #190, #199, #171 ) ) ;
#84 = DIRECTION ( 'NONE',  ( 1.000000000000000000, 0.000000000000000000, 0.000000000000000000 ) ) ;
#85 =( LENGTH_UNIT ( ) NAMED_UNIT ( * ) SI_UNIT ( .MILLI., .METRE. ) );
#86 = ORIENTED_EDGE ( 'NONE', *, *, #137, .T. ) ;
#87 = SPHERICAL_SURFACE ( 'NONE', #38, 603.3899999999999864 ) ;
#88 = ORIENTED_EDGE ( 'NONE', *, *, #146, .T. ) ;
#89 = CARTESIAN_POINT ( 'NONE',  ( 0.000000000000000000, 0.000000000000000000, 3.984896188597097932 ) ) ;
#90 = FILL_AREA_STYLE_COLOUR ( '', #135 ) ;
#91 = CARTESIAN_POINT ( 'NONE',  ( 0.000000000000000000, 3.694698160687607492E-14, 5.866332001579599442 ) ) ;
#92 = FACE_OUTER_BOUND ( 'NONE', #5, .T. ) ;
#93 = AXIS2_PLACEMENT_3D ( 'NONE', #132, #157, #154 ) ;
#94 = CIRCLE ( 'NONE', #299, 12.69999999999999929 ) ;
#95 = DIRECTION ( 'NONE',  ( 0.000000000000000000, 1.000000000000000000, 0.000000000000000000 ) ) ;
#96 =( NAMED_UNIT ( * ) SI_UNIT ( $, .STERADIAN. ) SOLID_ANGLE_UNIT ( ) );
#97 =( GEOMETRIC_REPRESENTATION_CONTEXT ( 3 ) GLOBAL_UNCERTAINTY_ASSIGNED_CONTEXT ( ( #155 ) ) GLOBAL_UNIT_ASSIGNED_CONTEXT ( ( #55, #31, #114 ) ) REPRESENTATION_CONTEXT ( 'NONE', 'WORKASPACE' ) );
#98 = CYLINDRICAL_SURFACE ( 'NONE', #263, 12.69999999999999929 ) ;
#99 = EDGE_CURVE ( 'NONE', #300, #176, #22, .T. ) ;
#100 = PRODUCT ( 'GLM2-025B-500-UV', 'GLM2-025B-500-UV', '', ( #150 ) ) ;
#101 = AXIS2_PLACEMENT_3D ( 'NONE', #89, #203, #302 ) ;
#102 = EDGE_CURVE ( 'NONE', #122, #317, #213, .T. ) ;
#103 = DIRECTION ( 'NONE',  ( 1.000000000000000000, 0.000000000000000000, 0.000000000000000000 ) ) ;
#104 = EDGE_LOOP ( 'NONE', ( #54, #86, #110, #13 ) ) ;
#105 = VECTOR ( 'NONE', #261, 1000.000000000000000 ) ;
#106 = DIRECTION ( 'NONE',  ( -0.7071067811865506814, 0.000000000000000000, -0.7071067811865443531 ) ) ;
#107 = PRESENTATION_LAYER_ASSIGNMENT (  '', '', ( #145 ) ) ;
#108 = ORIENTED_EDGE ( 'NONE', *, *, #75, .T. ) ;
#109 = ORIENTED_EDGE ( 'NONE', *, *, #228, .F. ) ;
#110 = ORIENTED_EDGE ( 'NONE', *, *, #183, .T. ) ;
#111 = ORIENTED_EDGE ( 'NONE', *, *, #137, .F. ) ;
#112 = VECTOR ( 'NONE', #21, 1000.000000000000000 ) ;
#113 = VECTOR ( 'NONE', #174, 1000.000000000000000 ) ;
#114 =( NAMED_UNIT ( * ) SI_UNIT ( $, .STERADIAN. ) SOLID_ANGLE_UNIT ( ) );
#115 = DIRECTION ( 'NONE',  ( -1.224646799147353207E-16, -1.000000000000000000, 0.000000000000000000 ) ) ;
#116 = EDGE_CURVE ( 'NONE', #58, #176, #288, .T. ) ;
#117 = CARTESIAN_POINT ( 'NONE',  ( 0.000000000000000000, 0.000000000000000000, 4.217170936316433583 ) ) ;
#118 = ORIENTED_EDGE ( 'NONE', *, *, #295, .T. ) ;
#119 = CARTESIAN_POINT ( 'NONE',  ( 12.69999999999999929, 1.555301434917138433E-15, 5.799999999999916334 ) ) ;
#120 = EDGE_CURVE ( 'NONE', #243, #139, #18, .T. ) ;
#121 =( NAMED_UNIT ( * ) PLANE_ANGLE_UNIT ( ) SI_UNIT ( $, .RADIAN. ) );
#122 = VERTEX_POINT ( 'NONE', #257 ) ;
#123 = DIRECTION ( 'NONE',  ( 1.000000000000000000, 0.000000000000000000, 0.000000000000000000 ) ) ;
#124 =( NAMED_UNIT ( * ) PLANE_ANGLE_UNIT ( ) SI_UNIT ( $, .RADIAN. ) );
#125 = DIRECTION ( 'NONE',  ( -0.000000000000000000, -0.000000000000000000, 1.000000000000000000 ) ) ;
#126 = APPLICATION_PROTOCOL_DEFINITION ( 'draft international standard', 'automotive_design', 1998, #140 ) ;
#127 = CARTESIAN_POINT ( 'NONE',  ( 0.000000000000000000, 0.000000000000000000, 170.2656684345869564 ) ) ;
#128 = CARTESIAN_POINT ( 'NONE',  ( 0.000000000000000000, 0.000000000000000000, 170.2656684345869564 ) ) ;
#129 = ADVANCED_FACE ( 'NONE', ( #70 ), #162, .T. ) ;
#130 = CIRCLE ( 'NONE', #101, 12.50069123197759424 ) ;
#131 = CARTESIAN_POINT ( 'NONE',  ( 0.000000000000000000, 0.000000000000000000, 5.995907499248387396 ) ) ;
#132 = CARTESIAN_POINT ( 'NONE',  ( 0.000000000000000000, 0.000000000000000000, 609.2563320015796080 ) ) ;
#133 = EDGE_CURVE ( 'NONE', #275, #243, #184, .T. ) ;
#134 = UNCERTAINTY_MEASURE_WITH_UNIT (LENGTH_MEASURE( 1.000000000000000082E-05 ), #85, 'distance_accuracy_value', 'NONE');
#135 = COLOUR_RGB ( '',1.000000000000000000, 1.000000000000000000, 1.000000000000000000 ) ;
#136 = AXIS2_PLACEMENT_3D ( 'NONE', #128, #325, #95 ) ;
#137 = EDGE_CURVE ( 'NONE', #27, #77, #7, .T. ) ;
#138 = DIRECTION ( 'NONE',  ( -0.000000000000000000, -0.000000000000000000, 1.000000000000000000 ) ) ;
#139 = VERTEX_POINT ( 'NONE', #24 ) ;
#140 = APPLICATION_CONTEXT ( 'automotive_design' ) ;
#141 = ORIENTED_EDGE ( 'NONE', *, *, #319, .F. ) ;
#142 = ORIENTED_EDGE ( 'NONE', *, *, #9, .F. ) ;
#143 = AXIS2_PLACEMENT_3D ( 'NONE', #208, #182, #253 ) ;
#144 = DIRECTION ( 'NONE',  ( 0.000000000000000000, 0.000000000000000000, -1.000000000000000000 ) ) ;
#145 = STYLED_ITEM ( 'NONE', ( #218 ), #152 ) ;
#146 = EDGE_CURVE ( 'NONE', #28, #300, #206, .T. ) ;
#147 = DIRECTION ( 'NONE',  ( 0.000000000000000000, 0.000000000000000000, -1.000000000000000000 ) ) ;
#148 = ORIENTED_EDGE ( 'NONE', *, *, #99, .T. ) ;
#149 = DIRECTION ( 'NONE',  ( 1.000000000000000000, 0.000000000000000000, 0.000000000000000000 ) ) ;
#150 = PRODUCT_CONTEXT ( 'NONE', #140, 'mechanical' ) ;
#151 = CARTESIAN_POINT ( 'NONE',  ( 0.000000000000000000, 0.000000000000000000, 609.2563320015796080 ) ) ;
#152 = ADVANCED_BREP_SHAPE_REPRESENTATION ( 'GLM2-025B-500-UV', ( #214, #231 ), #76 ) ;
#153 = CIRCLE ( 'NONE', #179, 12.50069123197759424 ) ;
#154 = DIRECTION ( 'NONE',  ( -1.224646799147353207E-16, -1.000000000000000000, 0.000000000000000000 ) ) ;
#155 = UNCERTAINTY_MEASURE_WITH_UNIT (LENGTH_MEASURE( 1.000000000000000082E-05 ), #55, 'distance_accuracy_value', 'NONE');
#156 = CARTESIAN_POINT ( 'NONE',  ( 0.000000000000000000, 0.000000000000000000, 4.217170936316433583 ) ) ;
#157 = DIRECTION ( 'NONE',  ( -1.000000000000000000, 1.224646799147353207E-16, 0.000000000000000000 ) ) ;
#158 = PRESENTATION_STYLE_ASSIGNMENT (( #329 ) ) ;
#159 = CARTESIAN_POINT ( 'NONE',  ( -1.531309685728248665E-15, -12.50409250074720546, 5.995907499248387396 ) ) ;
#160 = DIRECTION ( 'NONE',  ( 1.000000000000000000, -0.000000000000000000, 0.000000000000000000 ) ) ;
#161 = VECTOR ( 'NONE', #247, 1000.000000000000000 ) ;
#162 = CONICAL_SURFACE ( 'NONE', #312, 12.50409250075130529, 0.7853981633974528309 ) ;
#163 = AXIS2_PLACEMENT_3D ( 'NONE', #156, #71, #298 ) ;
#164 = ADVANCED_FACE ( 'NONE', ( #180 ), #19, .T. ) ;
#165 = CARTESIAN_POINT ( 'NONE',  ( -12.50409250075130529, 0.000000000000000000, 5.995907499248609440 ) ) ;
#166 = ORIENTED_EDGE ( 'NONE', *, *, #116, .T. ) ;
#167 = FACE_OUTER_BOUND ( 'NONE', #10, .T. ) ;
#168 = ORIENTED_EDGE ( 'NONE', *, *, #240, .F. ) ;
#169 = EDGE_LOOP ( 'NONE', ( #141, #51, #79, #108, #29 ) ) ;
#170 =( LENGTH_UNIT ( ) NAMED_UNIT ( * ) SI_UNIT ( .MILLI., .METRE. ) );
#171 = ORIENTED_EDGE ( 'NONE', *, *, #187, .F. ) ;
#172 = EDGE_CURVE ( 'NONE', #176, #275, #328, .T. ) ;
#173 = ORIENTED_EDGE ( 'NONE', *, *, #187, .T. ) ;
#174 = DIRECTION ( 'NONE',  ( -0.000000000000000000, -0.000000000000000000, -1.000000000000000000 ) ) ;
#175 = DIRECTION ( 'NONE',  ( -0.000000000000000000, -0.000000000000000000, 1.000000000000000000 ) ) ;
#176 = VERTEX_POINT ( 'NONE', #159 ) ;
#177 = DIRECTION ( 'NONE',  ( -1.000000000000000000, 0.000000000000000000, 0.000000000000000000 ) ) ;
#178 = CARTESIAN_POINT ( 'NONE',  ( 12.69999999999999929, 0.000000000000000000, 4.217170936316433583 ) ) ;
#179 = AXIS2_PLACEMENT_3D ( 'NONE', #279, #147, #40 ) ;
#180 = FACE_OUTER_BOUND ( 'NONE', #313, .T. ) ;
#181 = CARTESIAN_POINT ( 'NONE',  ( 0.000000000000000000, 0.000000000000000000, 5.799999999999916334 ) ) ;
#182 = DIRECTION ( 'NONE',  ( -0.000000000000000000, -0.000000000000000000, -1.000000000000000000 ) ) ;
#183 = EDGE_CURVE ( 'NONE', #77, #238, #130, .T. ) ;
#184 = LINE ( 'NONE', #286, #32 ) ;
#185 = AXIS2_PLACEMENT_3D ( 'NONE', #131, #125, #46 ) ;
#186 = UNCERTAINTY_MEASURE_WITH_UNIT (LENGTH_MEASURE( 1.000000000000000082E-05 ), #170, 'distance_accuracy_value', 'NONE');
#187 = EDGE_CURVE ( 'NONE', #243, #293, #80, .T. ) ;
#188 = AXIS2_PLACEMENT_3D ( 'NONE', #11, #277, #57 ) ;
#189 = CARTESIAN_POINT ( 'NONE',  ( 0.000000000000000000, 0.000000000000000000, 5.995907499248387396 ) ) ;
#190 = ORIENTED_EDGE ( 'NONE', *, *, #99, .F. ) ;
#191 = CARTESIAN_POINT ( 'NONE',  ( 0.000000000000000000, 1.021049268789105718E-14, 3.515668434586949331 ) ) ;
#192 = ORIENTED_EDGE ( 'NONE', *, *, #311, .T. ) ;
#193 =( GEOMETRIC_REPRESENTATION_CONTEXT ( 3 ) GLOBAL_UNCERTAINTY_ASSIGNED_CONTEXT ( ( #134 ) ) GLOBAL_UNIT_ASSIGNED_CONTEXT ( ( #85, #124, #96 ) ) REPRESENTATION_CONTEXT ( 'NONE', 'WORKASPACE' ) );
#194 = ORIENTED_EDGE ( 'NONE', *, *, #9, .T. ) ;
#195 = ADVANCED_FACE ( 'NONE', ( #92 ), #87, .F. ) ;
#196 = ORIENTED_EDGE ( 'NONE', *, *, #266, .T. ) ;
#197 = APPLICATION_CONTEXT ( 'automotive_design' ) ;
#198 = CARTESIAN_POINT ( 'NONE',  ( -12.50069123197759424, 1.543097292677106632E-15, 3.984896188597097932 ) ) ;
#199 = ORIENTED_EDGE ( 'NONE', *, *, #26, .T. ) ;
#200 = CARTESIAN_POINT ( 'NONE',  ( 0.000000000000000000, 0.000000000000000000, 609.2563320015796080 ) ) ;
#201 = DIRECTION ( 'NONE',  ( 0.000000000000000000, 1.000000000000000000, 0.000000000000000000 ) ) ;
#202 = ORIENTED_EDGE ( 'NONE', *, *, #295, .F. ) ;
#203 = DIRECTION ( 'NONE',  ( 0.000000000000000000, 0.000000000000000000, -1.000000000000000000 ) ) ;
#204 = CARTESIAN_POINT ( 'NONE',  ( 0.000000000000000000, 12.50069123197775767, 3.984896188597097932 ) ) ;
#205 = FACE_OUTER_BOUND ( 'NONE', #291, .T. ) ;
#206 = CIRCLE ( 'NONE', #49, 12.50409250075131062 ) ;
#207 = CIRCLE ( 'NONE', #245, 166.7500000000000000 ) ;
#208 = CARTESIAN_POINT ( 'NONE',  ( 0.000000000000000000, 0.000000000000000000, 10.00000000000000000 ) ) ;
#209 = DIRECTION ( 'NONE',  ( 0.000000000000000000, 0.000000000000000000, -1.000000000000000000 ) ) ;
#210 = ADVANCED_FACE ( 'NONE', ( #205 ), #229, .F. ) ;
#211 = DIRECTION ( 'NONE',  ( -1.000000000000000000, 0.000000000000000000, 0.000000000000000000 ) ) ;
#212 = ORIENTED_EDGE ( 'NONE', *, *, #183, .F. ) ;
#213 = CIRCLE ( 'NONE', #306, 12.50069123197759424 ) ;
#214 = MANIFOLD_SOLID_BREP ( 'µ¹½Ç1', #256 ) ;
#215 = ORIENTED_EDGE ( 'NONE', *, *, #133, .F. ) ;
#216 = AXIS2_PLACEMENT_3D ( 'NONE', #151, #276, #17 ) ;
#217 = SURFACE_STYLE_FILL_AREA ( #249 ) ;
#218 = PRESENTATION_STYLE_ASSIGNMENT (( #220 ) ) ;
#219 = EDGE_CURVE ( 'NONE', #238, #122, #153, .T. ) ;
#220 = SURFACE_STYLE_USAGE ( .BOTH. , #12 ) ;
#221 = ORIENTED_EDGE ( 'NONE', *, *, #26, .F. ) ;
#222 = DIRECTION ( 'NONE',  ( -1.000000000000000000, 1.224646799147353207E-16, 0.000000000000000000 ) ) ;
#223 =( NAMED_UNIT ( * ) SI_UNIT ( $, .STERADIAN. ) SOLID_ANGLE_UNIT ( ) );
#224 = DIRECTION ( 'NONE',  ( 0.7071067811865506814, 8.659560562354969836E-17, -0.7071067811865443531 ) ) ;
#225 = SURFACE_SIDE_STYLE ('',( #62 ) ) ;
#226 = CARTESIAN_POINT ( 'NONE',  ( 0.000000000000000000, 0.000000000000000000, 5.995907499248609440 ) ) ;
#227 = DIRECTION ( 'NONE',  ( -1.000000000000000000, 0.000000000000000000, 0.000000000000000000 ) ) ;
#228 = EDGE_CURVE ( 'NONE', #293, #243, #25, .T. ) ;
#229 = SPHERICAL_SURFACE ( 'NONE', #216, 603.3899999999999864 ) ;
#230 = AXIS2_PLACEMENT_3D ( 'NONE', #232, #284, #323 ) ;
#231 = AXIS2_PLACEMENT_3D ( 'NONE', #248, #321, #297 ) ;
#232 = CARTESIAN_POINT ( 'NONE',  ( 0.000000000000000000, 0.000000000000000000, 5.995907499248387396 ) ) ;
#233 = PRESENTATION_LAYER_ASSIGNMENT (  '', '', ( #318 ) ) ;
#234 = AXIS2_PLACEMENT_3D ( 'NONE', #189, #1, #103 ) ;
#235 = EDGE_LOOP ( 'NONE', ( #14, #173, #6, #246 ) ) ;
#236 = LINE ( 'NONE', #165, #281 ) ;
#237 = ADVANCED_FACE ( 'NONE', ( #309 ), #307, .T. ) ;
#238 = VERTEX_POINT ( 'NONE', #60 ) ;
#239 = AXIS2_PLACEMENT_3D ( 'NONE', #244, #84, #144 ) ;
#240 = EDGE_CURVE ( 'NONE', #293, #241, #251, .T. ) ;
#241 = VERTEX_POINT ( 'NONE', #35 ) ;
#242 = ORIENTED_EDGE ( 'NONE', *, *, #133, .T. ) ;
#243 = VERTEX_POINT ( 'NONE', #119 ) ;
#244 = CARTESIAN_POINT ( 'NONE',  ( 0.000000000000000000, 0.000000000000000000, 609.2563320015796080 ) ) ;
#245 = AXIS2_PLACEMENT_3D ( 'NONE', #37, #222, #115 ) ;
#246 = ORIENTED_EDGE ( 'NONE', *, *, #285, .T. ) ;
#247 = DIRECTION ( 'NONE',  ( -0.6511983538683498995, 7.974879796749002511E-17, 0.7589075727116915138 ) ) ;
#248 = CARTESIAN_POINT ( 'NONE',  ( 0.000000000000000000, 0.000000000000000000, 0.000000000000000000 ) ) ;
#249 = FILL_AREA_STYLE ('',( #270 ) ) ;
#250 = ORIENTED_EDGE ( 'NONE', *, *, #146, .F. ) ;
#251 = LINE ( 'NONE', #283, #113 ) ;
#252 = CARTESIAN_POINT ( 'NONE',  ( -12.69999999999999929, 0.000000000000000000, 5.799999999999916334 ) ) ;
#253 = DIRECTION ( 'NONE',  ( -1.000000000000000000, 0.000000000000000000, 0.000000000000000000 ) ) ;
#254 = DIRECTION ( 'NONE',  ( 1.000000000000000000, 0.000000000000000000, 0.000000000000000000 ) ) ;
#255 = MECHANICAL_DESIGN_GEOMETRIC_PRESENTATION_REPRESENTATION (  '', ( #318 ), #193 ) ;
#256 = CLOSED_SHELL ( 'NONE', ( #44, #237, #195, #30, #164, #69, #260, #210, #289, #129 ) ) ;
#257 = CARTESIAN_POINT ( 'NONE',  ( -1.530893150437094356E-15, -12.50069123197775767, 3.984896188597097932 ) ) ;
#258 = APPLICATION_PROTOCOL_DEFINITION ( 'draft international standard', 'automotive_design', 1998, #197 ) ;
#259 = FACE_OUTER_BOUND ( 'NONE', #104, .T. ) ;
#260 = ADVANCED_FACE ( 'NONE', ( #259 ), #322, .T. ) ;
#261 = DIRECTION ( 'NONE',  ( -0.000000000000000000, -0.000000000000000000, -1.000000000000000000 ) ) ;
#262 = FACE_OUTER_BOUND ( 'NONE', #235, .T. ) ;
#263 = AXIS2_PLACEMENT_3D ( 'NONE', #310, #39, #211 ) ;
#264 = DIRECTION ( 'NONE',  ( 0.000000000000000000, 0.000000000000000000, -1.000000000000000000 ) ) ;
#265 = CONICAL_SURFACE ( 'NONE', #272, 12.50409250075130529, 0.7853981633974528309 ) ;
#266 = EDGE_CURVE ( 'NONE', #27, #122, #207, .T. ) ;
#267 = CARTESIAN_POINT ( 'NONE',  ( 0.000000000000000000, 12.50409250074720546, 5.995907499248387396 ) ) ;
#268 = ORIENTED_EDGE ( 'NONE', *, *, #172, .T. ) ;
#269 = ORIENTED_EDGE ( 'NONE', *, *, #102, .T. ) ;
#270 = FILL_AREA_STYLE_COLOUR ( '', #314 ) ;
#271 = FACE_OUTER_BOUND ( 'NONE', #169, .T. ) ;
#272 = AXIS2_PLACEMENT_3D ( 'NONE', #45, #72, #227 ) ;
#273 = CIRCLE ( 'NONE', #239, 603.3899999999999864 ) ;
#274 = DIRECTION ( 'NONE',  ( 1.000000000000000000, 0.000000000000000000, 0.000000000000000000 ) ) ;
#275 = VERTEX_POINT ( 'NONE', #296 ) ;
#276 = DIRECTION ( 'NONE',  ( -1.000000000000000000, 0.000000000000000000, 0.000000000000000000 ) ) ;
#277 = DIRECTION ( 'NONE',  ( 0.000000000000000000, 0.000000000000000000, -1.000000000000000000 ) ) ;
#278 = CARTESIAN_POINT ( 'NONE',  ( 0.000000000000000000, 0.000000000000000000, 5.995907499248387396 ) ) ;
#279 = CARTESIAN_POINT ( 'NONE',  ( 0.000000000000000000, 0.000000000000000000, 3.984896188597097932 ) ) ;
#280 = AXIS2_PLACEMENT_3D ( 'NONE', #304, #303, #324 ) ;
#281 = VECTOR ( 'NONE', #106, 1000.000000000000114 ) ;
#282 = LINE ( 'NONE', #178, #112 ) ;
#283 = CARTESIAN_POINT ( 'NONE',  ( -12.69999999999999929, 0.000000000000000000, 10.00000000000000000 ) ) ;
#284 = DIRECTION ( 'NONE',  ( -0.000000000000000000, -0.000000000000000000, 1.000000000000000000 ) ) ;
#285 = EDGE_CURVE ( 'NONE', #241, #139, #94, .T. ) ;
#286 = CARTESIAN_POINT ( 'NONE',  ( 12.50409250075130529, 1.531309685728750775E-15, 5.995907499248609440 ) ) ;
#287 = MECHANICAL_DESIGN_GEOMETRIC_PRESENTATION_REPRESENTATION (  '', ( #145 ), #97 ) ;
#288 = CIRCLE ( 'NONE', #93, 603.3899999999999864 ) ;
#289 = ADVANCED_FACE ( 'NONE', ( #271 ), #330, .T. ) ;
#290 = ORIENTED_EDGE ( 'NONE', *, *, #23, .F. ) ;
#291 = EDGE_LOOP ( 'NONE', ( #315, #192, #88, #148 ) ) ;
#292 = ORIENTED_EDGE ( 'NONE', *, *, #172, .F. ) ;
#293 = VERTEX_POINT ( 'NONE', #252 ) ;
#294 = CARTESIAN_POINT ( 'NONE',  ( -12.50409250075131062, 0.000000000000000000, 5.995907499248387396 ) ) ;
#295 = EDGE_CURVE ( 'NONE', #317, #77, #47, .T. ) ;
#296 = CARTESIAN_POINT ( 'NONE',  ( 12.50409250075131062, 1.543305560322944900E-15, 5.995907499248387396 ) ) ;
#297 = DIRECTION ( 'NONE',  ( 1.000000000000000000, 0.000000000000000000, 0.000000000000000000 ) ) ;
#298 = DIRECTION ( 'NONE',  ( 1.000000000000000000, 0.000000000000000000, 0.000000000000000000 ) ) ;
#299 = AXIS2_PLACEMENT_3D ( 'NONE', #63, #320, #61 ) ;
#300 = VERTEX_POINT ( 'NONE', #294 ) ;
#301 = FILL_AREA_STYLE ('',( #90 ) ) ;
#302 = DIRECTION ( 'NONE',  ( 1.000000000000000000, 0.000000000000000000, 0.000000000000000000 ) ) ;
#303 = DIRECTION ( 'NONE',  ( 0.000000000000000000, 0.000000000000000000, -1.000000000000000000 ) ) ;
#304 = CARTESIAN_POINT ( 'NONE',  ( 0.000000000000000000, 0.000000000000000000, 5.799999999999916334 ) ) ;
#305 = DIRECTION ( 'NONE',  ( -0.000000000000000000, -0.000000000000000000, 1.000000000000000000 ) ) ;
#306 = AXIS2_PLACEMENT_3D ( 'NONE', #327, #331, #123 ) ;
#307 = CONICAL_SURFACE ( 'NONE', #163, 12.69999999999999929, 0.7091624202061372895 ) ;
#308 = FACE_OUTER_BOUND ( 'NONE', #53, .T. ) ;
#309 = FACE_OUTER_BOUND ( 'NONE', #4, .T. ) ;
#310 = CARTESIAN_POINT ( 'NONE',  ( 0.000000000000000000, 0.000000000000000000, 10.00000000000000000 ) ) ;
#311 = EDGE_CURVE ( 'NONE', #58, #28, #273, .T. ) ;
#312 = AXIS2_PLACEMENT_3D ( 'NONE', #226, #15, #64 ) ;
#313 = EDGE_LOOP ( 'NONE', ( #52, #316, #194, #168 ) ) ;
#314 = COLOUR_RGB ( '',1.000000000000000000, 1.000000000000000000, 1.000000000000000000 ) ;
#315 = ORIENTED_EDGE ( 'NONE', *, *, #116, .F. ) ;
#316 = ORIENTED_EDGE ( 'NONE', *, *, #120, .T. ) ;
#317 = VERTEX_POINT ( 'NONE', #198 ) ;
#318 = STYLED_ITEM ( 'NONE', ( #158 ), #214 ) ;
#319 = EDGE_CURVE ( 'NONE', #317, #241, #36, .T. ) ;
#320 = DIRECTION ( 'NONE',  ( -0.000000000000000000, -0.000000000000000000, 1.000000000000000000 ) ) ;
#321 = DIRECTION ( 'NONE',  ( 0.000000000000000000, 0.000000000000000000, 1.000000000000000000 ) ) ;
#322 = SPHERICAL_SURFACE ( 'NONE', #8, 166.7500000000000000 ) ;
#323 = DIRECTION ( 'NONE',  ( 1.000000000000000000, 0.000000000000000000, 0.000000000000000000 ) ) ;
#324 = DIRECTION ( 'NONE',  ( 1.000000000000000000, 0.000000000000000000, 0.000000000000000000 ) ) ;
#325 = DIRECTION ( 'NONE',  ( -1.000000000000000000, 0.000000000000000000, 0.000000000000000000 ) ) ;
#326 = DIRECTION ( 'NONE',  ( -1.000000000000000000, 0.000000000000000000, 0.000000000000000000 ) ) ;
#327 = CARTESIAN_POINT ( 'NONE',  ( 0.000000000000000000, 0.000000000000000000, 3.984896188597097932 ) ) ;
#328 = CIRCLE ( 'NONE', #230, 12.50409250075131062 ) ;
#329 = SURFACE_STYLE_USAGE ( .BOTH. , #225 ) ;
#330 = CONICAL_SURFACE ( 'NONE', #59, 12.69999999999999929, 0.7091624202061372895 ) ;
#331 = DIRECTION ( 'NONE',  ( 0.000000000000000000, 0.000000000000000000, -1.000000000000000000 ) ) ;
#332 = CIRCLE ( 'NONE', #41, 12.69999999999999929 ) ;
ENDSEC;
END-ISO-10303-21;
