ISO-10303-21;
HEADER;
FILE_DESCRIPTION (( 'STEP AP214' ),
    '1' );
FILE_NAME ('GLM2-050B-500.STEP',
    '2024-08-09T03:00:38',
    ( 'Windows User' ),
    ( 'P R C' ),
    'SwSTEP 2.0',
    'SolidWorks 2022',
    '' );
FILE_SCHEMA (( 'AUTOMOTIVE_DESIGN' ));
ENDSEC;

DATA;
#1 = CARTESIAN_POINT ( 'NONE',  ( 0.000000000000000000, 0.000000000000000000, 599.7961890119171358 ) ) ;
#2 = FILL_AREA_STYLE_COLOUR ( '', #173 ) ;
#3 = DIRECTION ( 'NONE',  ( 1.000000000000000000, 0.000000000000000000, 0.000000000000000000 ) ) ;
#4 = CIRCLE ( 'NONE', #194, 582.7500000000000000 ) ;
#5 = DIRECTION ( 'NONE',  ( -0.000000000000000000, -0.000000000000000000, -1.000000000000000000 ) ) ;
#6 = VERTEX_POINT ( 'NONE', #295 ) ;
#7 = APPLICATION_CONTEXT ( 'automotive_design' ) ;
#8 = EDGE_CURVE ( 'NONE', #311, #89, #147, .T. ) ;
#9 = PRESENTATION_LAYER_ASSIGNMENT (  '', '', ( #86 ) ) ;
#10 = ORIENTED_EDGE ( 'NONE', *, *, #319, .F. ) ;
#11 = AXIS2_PLACEMENT_3D ( 'NONE', #187, #5, #129 ) ;
#12 = CARTESIAN_POINT ( 'NONE',  ( -25.39999999999999858, 0.000000000000000000, 14.23965329215320885 ) ) ;
#13 = DIRECTION ( 'NONE',  ( 1.000000000000000000, 0.000000000000000000, 0.000000000000000000 ) ) ;
#14 = FACE_OUTER_BOUND ( 'NONE', #222, .T. ) ;
#15 = VERTEX_POINT ( 'NONE', #40 ) ;
#16 = AXIS2_PLACEMENT_3D ( 'NONE', #74, #210, #201 ) ;
#17 = AXIS2_PLACEMENT_3D ( 'NONE', #128, #163, #73 ) ;
#18 = ORIENTED_EDGE ( 'NONE', *, *, #312, .F. ) ;
#19 = ADVANCED_FACE ( 'NONE', ( #196 ), #281, .T. ) ;
#20 = DIRECTION ( 'NONE',  ( 0.7071067811866051933, 8.659560562355639135E-17, -0.7071067811864899522 ) ) ;
#21 = DIRECTION ( 'NONE',  ( -0.000000000000000000, -0.000000000000000000, 1.000000000000000000 ) ) ;
#22 = CIRCLE ( 'NONE', #209, 25.39999999999999858 ) ;
#23 = CARTESIAN_POINT ( 'NONE',  ( -25.39999999999999858, 3.110602869834276865E-15, 14.23965329215320885 ) ) ;
#24 = CARTESIAN_POINT ( 'NONE',  ( 0.000000000000000000, 0.000000000000000000, 177.4077014708915385 ) ) ;
#25 = FACE_OUTER_BOUND ( 'NONE', #93, .T. ) ;
#26 = UNCERTAINTY_MEASURE_WITH_UNIT (LENGTH_MEASURE( 1.000000000000000082E-05 ), #236, 'distance_accuracy_value', 'NONE');
#27 = SPHERICAL_SURFACE ( 'NONE', #32, 582.7500000000000000 ) ;
#28 = CIRCLE ( 'NONE', #71, 25.20247402996205821 ) ;
#29 = EDGE_CURVE ( 'NONE', #288, #170, #250, .T. ) ;
#30 = CARTESIAN_POINT ( 'NONE',  ( 0.000000000000000000, 0.000000000000000000, 17.59166947258827918 ) ) ;
#31 = ORIENTED_EDGE ( 'NONE', *, *, #214, .T. ) ;
#32 = AXIS2_PLACEMENT_3D ( 'NONE', #158, #110, #87 ) ;
#33 = VECTOR ( 'NONE', #114, 1000.000000000000000 ) ;
#34 = DIRECTION ( 'NONE',  ( -0.000000000000000000, -0.000000000000000000, 1.000000000000000000 ) ) ;
#35 = ORIENTED_EDGE ( 'NONE', *, *, #8, .T. ) ;
#36 = DIRECTION ( 'NONE',  ( 0.000000000000000000, 0.000000000000000000, 1.000000000000000000 ) ) ;
#37 = ORIENTED_EDGE ( 'NONE', *, *, #63, .T. ) ;
#38 = DIRECTION ( 'NONE',  ( 1.000000000000000000, 0.000000000000000000, 0.000000000000000000 ) ) ;
#39 = PRODUCT_DEFINITION_FORMATION_WITH_SPECIFIED_SOURCE ( 'ÈÎºÎ', '', #69, .NOT_KNOWN. ) ;
#40 = CARTESIAN_POINT ( 'NONE',  ( -3.086412915138717110E-15, -25.20247402996192321, 13.96941892127251350 ) ) ;
#41 = SPHERICAL_SURFACE ( 'NONE', #106, 582.7500000000000000 ) ;
#42 = ADVANCED_FACE ( 'NONE', ( #300 ), #182, .T. ) ;
#43 = ORIENTED_EDGE ( 'NONE', *, *, #55, .F. ) ;
#44 = VERTEX_POINT ( 'NONE', #12 ) ;
#45 = ORIENTED_EDGE ( 'NONE', *, *, #111, .F. ) ;
#46 = ADVANCED_FACE ( 'NONE', ( #66 ), #191, .T. ) ;
#47 = AXIS2_PLACEMENT_3D ( 'NONE', #80, #257, #184 ) ;
#48 = SURFACE_STYLE_FILL_AREA ( #277 ) ;
#49 = CARTESIAN_POINT ( 'NONE',  ( 0.000000000000000000, 0.000000000000000000, 17.59166947258827918 ) ) ;
#50 = DIRECTION ( 'NONE',  ( -1.000000000000000000, 0.000000000000000000, 0.000000000000000000 ) ) ;
#51 = DIRECTION ( 'NONE',  ( 1.000000000000000000, 0.000000000000000000, 0.000000000000000000 ) ) ;
#52 = DIRECTION ( 'NONE',  ( -0.000000000000000000, -0.000000000000000000, 1.000000000000000000 ) ) ;
#53 = SPHERICAL_SURFACE ( 'NONE', #139, 165.3700000000000045 ) ;
#54 = CARTESIAN_POINT ( 'NONE',  ( 0.000000000000000000, 0.000000000000000000, 177.4077014708915385 ) ) ;
#55 = EDGE_CURVE ( 'NONE', #15, #198, #275, .T. ) ;
#56 = SURFACE_SIDE_STYLE ('',( #207 ) ) ;
#57 = CARTESIAN_POINT ( 'NONE',  ( 0.000000000000000000, 3.568314611015600113E-14, 17.04618901191712155 ) ) ;
#58 = ORIENTED_EDGE ( 'NONE', *, *, #63, .F. ) ;
#59 = ORIENTED_EDGE ( 'NONE', *, *, #319, .T. ) ;
#60 = VECTOR ( 'NONE', #278, 1000.000000000000114 ) ;
#61 = ORIENTED_EDGE ( 'NONE', *, *, #307, .F. ) ;
#62 = DIRECTION ( 'NONE',  ( -0.000000000000000000, -0.000000000000000000, -1.000000000000000000 ) ) ;
#63 = EDGE_CURVE ( 'NONE', #198, #141, #28, .T. ) ;
#64 = SHAPE_DEFINITION_REPRESENTATION ( #130, #331 ) ;
#65 = AXIS2_PLACEMENT_3D ( 'NONE', #24, #136, #228 ) ;
#66 = FACE_OUTER_BOUND ( 'NONE', #241, .T. ) ;
#67 = DIRECTION ( 'NONE',  ( 0.000000000000000000, 0.000000000000000000, -1.000000000000000000 ) ) ;
#68 = ORIENTED_EDGE ( 'NONE', *, *, #29, .T. ) ;
#69 = PRODUCT ( 'GLM2-050B-500', 'GLM2-050B-500', '', ( #126 ) ) ;
#70 = DIRECTION ( 'NONE',  ( -1.000000000000000000, 0.000000000000000000, 0.000000000000000000 ) ) ;
#71 = AXIS2_PLACEMENT_3D ( 'NONE', #219, #320, #178 ) ;
#72 = EDGE_CURVE ( 'NONE', #104, #311, #112, .T. ) ;
#73 = DIRECTION ( 'NONE',  ( 1.000000000000000000, 0.000000000000000000, 0.000000000000000000 ) ) ;
#74 = CARTESIAN_POINT ( 'NONE',  ( 0.000000000000000000, 0.000000000000000000, 17.39999999999997016 ) ) ;
#75 = FACE_OUTER_BOUND ( 'NONE', #287, .T. ) ;
#76 = FILL_AREA_STYLE_COLOUR ( '', #189 ) ;
#77 = DIRECTION ( 'NONE',  ( -0.000000000000000000, -0.000000000000000000, -1.000000000000000000 ) ) ;
#78 = APPLICATION_CONTEXT ( 'automotive_design' ) ;
#79 = STYLED_ITEM ( 'NONE', ( #285 ), #131 ) ;
#80 = CARTESIAN_POINT ( 'NONE',  ( 0.000000000000000000, 0.000000000000000000, 17.59166947258827918 ) ) ;
#81 = DIRECTION ( 'NONE',  ( 0.000000000000000000, 0.000000000000000000, -1.000000000000000000 ) ) ;
#82 = CARTESIAN_POINT ( 'NONE',  ( -25.20833052741166114, 0.000000000000000000, 17.59166947258827918 ) ) ;
#83 = EDGE_CURVE ( 'NONE', #141, #98, #122, .T. ) ;
#84 = ORIENTED_EDGE ( 'NONE', *, *, #294, .T. ) ;
#85 = CIRCLE ( 'NONE', #159, 25.20833052741164693 ) ;
#86 = STYLED_ITEM ( 'NONE', ( #142 ), #331 ) ;
#87 = DIRECTION ( 'NONE',  ( 0.000000000000000000, 1.000000000000000000, 0.000000000000000000 ) ) ;
#88 = ADVANCED_FACE ( 'NONE', ( #279 ), #304, .T. ) ;
#89 = VERTEX_POINT ( 'NONE', #119 ) ;
#90 = ORIENTED_EDGE ( 'NONE', *, *, #72, .T. ) ;
#91 =( LENGTH_UNIT ( ) NAMED_UNIT ( * ) SI_UNIT ( .MILLI., .METRE. ) );
#92 = CIRCLE ( 'NONE', #321, 165.3700000000000045 ) ;
#93 = EDGE_LOOP ( 'NONE', ( #234, #35, #31, #18 ) ) ;
#94 = AXIS2_PLACEMENT_3D ( 'NONE', #177, #270, #100 ) ;
#95 = ORIENTED_EDGE ( 'NONE', *, *, #239, .F. ) ;
#96 = EDGE_CURVE ( 'NONE', #123, #216, #244, .T. ) ;
#97 = DIRECTION ( 'NONE',  ( -0.000000000000000000, -0.000000000000000000, 1.000000000000000000 ) ) ;
#98 = VERTEX_POINT ( 'NONE', #305 ) ;
#99 = AXIS2_PLACEMENT_3D ( 'NONE', #195, #97, #152 ) ;
#100 = DIRECTION ( 'NONE',  ( 1.000000000000000000, 0.000000000000000000, 0.000000000000000000 ) ) ;
#101 = ADVANCED_FACE ( 'NONE', ( #137 ), #264, .T. ) ;
#102 = CARTESIAN_POINT ( 'NONE',  ( 0.000000000000000000, 0.000000000000000000, 599.7961890119171358 ) ) ;
#103 = VECTOR ( 'NONE', #62, 1000.000000000000000 ) ;
#104 = VERTEX_POINT ( 'NONE', #161 ) ;
#105 = DIRECTION ( 'NONE',  ( -0.000000000000000000, -0.000000000000000000, 1.000000000000000000 ) ) ;
#106 = AXIS2_PLACEMENT_3D ( 'NONE', #102, #179, #272 ) ;
#107 =( GEOMETRIC_REPRESENTATION_CONTEXT ( 3 ) GLOBAL_UNCERTAINTY_ASSIGNED_CONTEXT ( ( #229 ) ) GLOBAL_UNIT_ASSIGNED_CONTEXT ( ( #235, #211, #245 ) ) REPRESENTATION_CONTEXT ( 'NONE', 'WORKASPACE' ) );
#108 = CARTESIAN_POINT ( 'NONE',  ( 0.000000000000000000, 0.000000000000000000, 599.7961890119171358 ) ) ;
#109 = DIRECTION ( 'NONE',  ( 1.000000000000000000, 0.000000000000000000, 0.000000000000000000 ) ) ;
#110 = DIRECTION ( 'NONE',  ( -1.000000000000000000, 0.000000000000000000, 0.000000000000000000 ) ) ;
#111 = EDGE_CURVE ( 'NONE', #311, #306, #146, .T. ) ;
#112 = LINE ( 'NONE', #252, #260 ) ;
#113 = DIRECTION ( 'NONE',  ( -1.000000000000000000, 1.224646799147353207E-16, 0.000000000000000000 ) ) ;
#114 = DIRECTION ( 'NONE',  ( -0.7071067811866051933, 0.000000000000000000, -0.7071067811864899522 ) ) ;
#115 = CIRCLE ( 'NONE', #156, 25.39999999999999858 ) ;
#116 = AXIS2_PLACEMENT_3D ( 'NONE', #193, #105, #13 ) ;
#117 =( NAMED_UNIT ( * ) PLANE_ANGLE_UNIT ( ) SI_UNIT ( $, .RADIAN. ) );
#118 = EDGE_CURVE ( 'NONE', #6, #15, #92, .T. ) ;
#119 = CARTESIAN_POINT ( 'NONE',  ( 25.39999999999999858, 3.110602869834276865E-15, 14.23965329215320885 ) ) ;
#120 = ORIENTED_EDGE ( 'NONE', *, *, #232, .T. ) ;
#121 = ORIENTED_EDGE ( 'NONE', *, *, #286, .F. ) ;
#122 = CIRCLE ( 'NONE', #166, 25.20247402996205821 ) ;
#123 = VERTEX_POINT ( 'NONE', #57 ) ;
#124 = DIRECTION ( 'NONE',  ( 1.000000000000000000, 0.000000000000000000, 0.000000000000000000 ) ) ;
#125 = ORIENTED_EDGE ( 'NONE', *, *, #118, .T. ) ;
#126 = PRODUCT_CONTEXT ( 'NONE', #7, 'mechanical' ) ;
#127 = DIRECTION ( 'NONE',  ( -1.000000000000000000, 0.000000000000000000, 0.000000000000000000 ) ) ;
#128 = CARTESIAN_POINT ( 'NONE',  ( 0.000000000000000000, 0.000000000000000000, 13.96941892127251350 ) ) ;
#129 = DIRECTION ( 'NONE',  ( -1.000000000000000000, 0.000000000000000000, 0.000000000000000000 ) ) ;
#130 = PRODUCT_DEFINITION_SHAPE ( 'NONE', 'NONE',  #242 ) ;
#131 = MANIFOLD_SOLID_BREP ( 'µ¹½Ç1', #162 ) ;
#132 = AXIS2_PLACEMENT_3D ( 'NONE', #233, #77, #70 ) ;
#133 = CARTESIAN_POINT ( 'NONE',  ( 0.000000000000000000, 0.000000000000000000, 17.59166947258827918 ) ) ;
#134 = DIRECTION ( 'NONE',  ( 1.000000000000000000, 0.000000000000000000, 0.000000000000000000 ) ) ;
#135 = LINE ( 'NONE', #227, #251 ) ;
#136 = DIRECTION ( 'NONE',  ( 1.000000000000000000, -0.000000000000000000, 0.000000000000000000 ) ) ;
#137 = FACE_OUTER_BOUND ( 'NONE', #153, .T. ) ;
#138 = CONICAL_SURFACE ( 'NONE', #291, 25.39999999999999858, 0.6311927713080182079 ) ;
#139 = AXIS2_PLACEMENT_3D ( 'NONE', #54, #223, #325 ) ;
#140 = CYLINDRICAL_SURFACE ( 'NONE', #132, 25.39999999999999858 ) ;
#141 = VERTEX_POINT ( 'NONE', #224 ) ;
#142 = PRESENTATION_STYLE_ASSIGNMENT (( #165 ) ) ;
#143 = DIRECTION ( 'NONE',  ( -1.000000000000000000, 0.000000000000000000, 0.000000000000000000 ) ) ;
#144 = EDGE_LOOP ( 'NONE', ( #215, #297, #217, #120 ) ) ;
#145 = PRODUCT_DEFINITION_CONTEXT ( 'detailed design', #78, 'design' ) ;
#146 = CIRCLE ( 'NONE', #16, 25.39999999999999858 ) ;
#147 = LINE ( 'NONE', #154, #103 ) ;
#148 = DIRECTION ( 'NONE',  ( -1.000000000000000000, 0.000000000000000000, 0.000000000000000000 ) ) ;
#149 = AXIS2_PLACEMENT_3D ( 'NONE', #108, #51, #204 ) ;
#150 = CARTESIAN_POINT ( 'NONE',  ( 0.000000000000000000, 0.000000000000000000, 13.96941892127251350 ) ) ;
#151 = ADVANCED_FACE ( 'NONE', ( #308 ), #27, .F. ) ;
#152 = DIRECTION ( 'NONE',  ( -1.000000000000000000, 0.000000000000000000, 0.000000000000000000 ) ) ;
#153 = EDGE_LOOP ( 'NONE', ( #271, #290, #265, #284, #45 ) ) ;
#154 = CARTESIAN_POINT ( 'NONE',  ( 25.39999999999999858, 3.110602869834276865E-15, 20.00000000000000000 ) ) ;
#155 = AXIS2_PLACEMENT_3D ( 'NONE', #30, #81, #143 ) ;
#156 = AXIS2_PLACEMENT_3D ( 'NONE', #225, #276, #50 ) ;
#157 = CARTESIAN_POINT ( 'NONE',  ( 25.39999999999999858, 3.110602869834276865E-15, 17.39999999999997016 ) ) ;
#158 = CARTESIAN_POINT ( 'NONE',  ( 0.000000000000000000, 0.000000000000000000, 599.7961890119171358 ) ) ;
#159 = AXIS2_PLACEMENT_3D ( 'NONE', #49, #21, #134 ) ;
#160 = FACE_OUTER_BOUND ( 'NONE', #212, .T. ) ;
#161 = CARTESIAN_POINT ( 'NONE',  ( 25.20833052741164693, 3.098866499529297784E-15, 17.59166947258827918 ) ) ;
#162 = CLOSED_SHELL ( 'NONE', ( #19, #327, #218, #302, #203, #88, #42, #151, #46, #101 ) ) ;
#163 = DIRECTION ( 'NONE',  ( 0.000000000000000000, 0.000000000000000000, -1.000000000000000000 ) ) ;
#164 = DIRECTION ( 'NONE',  ( -1.224646799147353207E-16, -1.000000000000000000, 0.000000000000000000 ) ) ;
#165 = SURFACE_STYLE_USAGE ( .BOTH. , #56 ) ;
#166 = AXIS2_PLACEMENT_3D ( 'NONE', #262, #326, #274 ) ;
#167 = UNCERTAINTY_MEASURE_WITH_UNIT (LENGTH_MEASURE( 1.000000000000000082E-05 ), #91, 'distance_accuracy_value', 'NONE');
#168 = SURFACE_STYLE_USAGE ( .BOTH. , #202 ) ;
#169 = EDGE_CURVE ( 'NONE', #170, #104, #85, .T. ) ;
#170 = VERTEX_POINT ( 'NONE', #185 ) ;
#171 = CIRCLE ( 'NONE', #17, 25.20247402996205821 ) ;
#172 = ORIENTED_EDGE ( 'NONE', *, *, #294, .F. ) ;
#173 = COLOUR_RGB ( '',1.000000000000000000, 1.000000000000000000, 1.000000000000000000 ) ;
#174 =( NAMED_UNIT ( * ) SI_UNIT ( $, .STERADIAN. ) SOLID_ANGLE_UNIT ( ) );
#175 = CARTESIAN_POINT ( 'NONE',  ( 0.000000000000000000, 0.000000000000000000, 177.4077014708915385 ) ) ;
#176 = EDGE_CURVE ( 'NONE', #6, #141, #240, .T. ) ;
#177 = CARTESIAN_POINT ( 'NONE',  ( 0.000000000000000000, 0.000000000000000000, 14.23965329215320885 ) ) ;
#178 = DIRECTION ( 'NONE',  ( 1.000000000000000000, 0.000000000000000000, 0.000000000000000000 ) ) ;
#179 = DIRECTION ( 'NONE',  ( -1.000000000000000000, 0.000000000000000000, 0.000000000000000000 ) ) ;
#180 = ORIENTED_EDGE ( 'NONE', *, *, #83, .F. ) ;
#181 = DIRECTION ( 'NONE',  ( 0.000000000000000000, 0.000000000000000000, -1.000000000000000000 ) ) ;
#182 = SPHERICAL_SURFACE ( 'NONE', #292, 165.3700000000000045 ) ;
#183 = PRODUCT_RELATED_PRODUCT_CATEGORY ( 'part', '', ( #69 ) ) ;
#184 = DIRECTION ( 'NONE',  ( 1.000000000000000000, 0.000000000000000000, 0.000000000000000000 ) ) ;
#185 = CARTESIAN_POINT ( 'NONE',  ( -3.087130129224342369E-15, -25.20833052741184588, 17.59166947258827918 ) ) ;
#186 = CARTESIAN_POINT ( 'NONE',  ( 25.39999999999999858, 0.000000000000000000, 14.23965329215320885 ) ) ;
#187 = CARTESIAN_POINT ( 'NONE',  ( 0.000000000000000000, 0.000000000000000000, 20.00000000000000000 ) ) ;
#188 = ORIENTED_EDGE ( 'NONE', *, *, #96, .T. ) ;
#189 = COLOUR_RGB ( '',1.000000000000000000, 1.000000000000000000, 1.000000000000000000 ) ;
#190 = ORIENTED_EDGE ( 'NONE', *, *, #176, .F. ) ;
#191 = CONICAL_SURFACE ( 'NONE', #94, 25.39999999999999858, 0.6311927713080182079 ) ;
#192 = ORIENTED_EDGE ( 'NONE', *, *, #266, .T. ) ;
#193 = CARTESIAN_POINT ( 'NONE',  ( 0.000000000000000000, 0.000000000000000000, 17.59166947258827918 ) ) ;
#194 = AXIS2_PLACEMENT_3D ( 'NONE', #1, #113, #164 ) ;
#195 = CARTESIAN_POINT ( 'NONE',  ( 0.000000000000000000, 0.000000000000000000, 14.23965329215320885 ) ) ;
#196 = FACE_OUTER_BOUND ( 'NONE', #267, .T. ) ;
#197 = ORIENTED_EDGE ( 'NONE', *, *, #226, .F. ) ;
#198 = VERTEX_POINT ( 'NONE', #330 ) ;
#199 = EDGE_CURVE ( 'NONE', #123, #170, #4, .T. ) ;
#200 = CARTESIAN_POINT ( 'NONE',  ( -25.20833052741164693, 0.000000000000000000, 17.59166947258827918 ) ) ;
#201 = DIRECTION ( 'NONE',  ( 1.000000000000000000, 0.000000000000000000, 0.000000000000000000 ) ) ;
#202 = SURFACE_SIDE_STYLE ('',( #48 ) ) ;
#203 = ADVANCED_FACE ( 'NONE', ( #25 ), #140, .T. ) ;
#204 = DIRECTION ( 'NONE',  ( 0.000000000000000000, 0.000000000000000000, -1.000000000000000000 ) ) ;
#205 = PRESENTATION_LAYER_ASSIGNMENT (  '', '', ( #79 ) ) ;
#206 = CIRCLE ( 'NONE', #47, 25.20833052741164693 ) ;
#207 = SURFACE_STYLE_FILL_AREA ( #283 ) ;
#208 = ORIENTED_EDGE ( 'NONE', *, *, #8, .F. ) ;
#209 = AXIS2_PLACEMENT_3D ( 'NONE', #269, #181, #109 ) ;
#210 = DIRECTION ( 'NONE',  ( 0.000000000000000000, 0.000000000000000000, -1.000000000000000000 ) ) ;
#211 =( NAMED_UNIT ( * ) PLANE_ANGLE_UNIT ( ) SI_UNIT ( $, .RADIAN. ) );
#212 = EDGE_LOOP ( 'NONE', ( #58, #84, #313, #315, #180 ) ) ;
#213 = CIRCLE ( 'NONE', #316, 25.20833052741164693 ) ;
#214 = EDGE_CURVE ( 'NONE', #89, #44, #237, .T. ) ;
#215 = ORIENTED_EDGE ( 'NONE', *, *, #118, .F. ) ;
#216 = VERTEX_POINT ( 'NONE', #296 ) ;
#217 = ORIENTED_EDGE ( 'NONE', *, *, #83, .T. ) ;
#218 = ADVANCED_FACE ( 'NONE', ( #14 ), #41, .F. ) ;
#219 = CARTESIAN_POINT ( 'NONE',  ( 0.000000000000000000, 0.000000000000000000, 13.96941892127251350 ) ) ;
#220 = ORIENTED_EDGE ( 'NONE', *, *, #232, .F. ) ;
#221 = VECTOR ( 'NONE', #332, 1000.000000000000114 ) ;
#222 = EDGE_LOOP ( 'NONE', ( #298, #324, #322, #293 ) ) ;
#223 = DIRECTION ( 'NONE',  ( -1.000000000000000000, 0.000000000000000000, 0.000000000000000000 ) ) ;
#224 = CARTESIAN_POINT ( 'NONE',  ( 0.000000000000000000, 25.20247402996192321, 13.96941892127251350 ) ) ;
#225 = CARTESIAN_POINT ( 'NONE',  ( 0.000000000000000000, 0.000000000000000000, 14.23965329215320885 ) ) ;
#226 = EDGE_CURVE ( 'NONE', #306, #311, #22, .T. ) ;
#227 = CARTESIAN_POINT ( 'NONE',  ( -25.39999999999999858, 0.000000000000000000, 20.00000000000000000 ) ) ;
#228 = DIRECTION ( 'NONE',  ( 0.000000000000000000, 0.000000000000000000, -1.000000000000000000 ) ) ;
#229 = UNCERTAINTY_MEASURE_WITH_UNIT (LENGTH_MEASURE( 1.000000000000000082E-05 ), #235, 'distance_accuracy_value', 'NONE');
#230 = LINE ( 'NONE', #82, #33 ) ;
#231 = MECHANICAL_DESIGN_GEOMETRIC_PRESENTATION_REPRESENTATION (  '', ( #79 ), #248 ) ;
#232 = EDGE_CURVE ( 'NONE', #98, #15, #171, .T. ) ;
#233 = CARTESIAN_POINT ( 'NONE',  ( 0.000000000000000000, 0.000000000000000000, 20.00000000000000000 ) ) ;
#234 = ORIENTED_EDGE ( 'NONE', *, *, #226, .T. ) ;
#235 =( LENGTH_UNIT ( ) NAMED_UNIT ( * ) SI_UNIT ( .MILLI., .METRE. ) );
#236 =( LENGTH_UNIT ( ) NAMED_UNIT ( * ) SI_UNIT ( .MILLI., .METRE. ) );
#237 = CIRCLE ( 'NONE', #99, 25.39999999999999858 ) ;
#238 = EDGE_LOOP ( 'NONE', ( #208, #263, #247, #249 ) ) ;
#239 = EDGE_CURVE ( 'NONE', #288, #306, #230, .T. ) ;
#240 = CIRCLE ( 'NONE', #65, 165.3700000000000045 ) ;
#241 = EDGE_LOOP ( 'NONE', ( #172, #43, #220, #192, #61 ) ) ;
#242 = PRODUCT_DEFINITION ( 'Î´Öª', '', #39, #145 ) ;
#243 = DIRECTION ( 'NONE',  ( 0.000000000000000000, 1.000000000000000000, 0.000000000000000000 ) ) ;
#244 = CIRCLE ( 'NONE', #149, 582.7500000000000000 ) ;
#245 =( NAMED_UNIT ( * ) SI_UNIT ( $, .STERADIAN. ) SOLID_ANGLE_UNIT ( ) );
#246 = DIRECTION ( 'NONE',  ( 0.000000000000000000, 0.000000000000000000, -1.000000000000000000 ) ) ;
#247 = ORIENTED_EDGE ( 'NONE', *, *, #312, .T. ) ;
#248 =( GEOMETRIC_REPRESENTATION_CONTEXT ( 3 ) GLOBAL_UNCERTAINTY_ASSIGNED_CONTEXT ( ( #26 ) ) GLOBAL_UNIT_ASSIGNED_CONTEXT ( ( #236, #255, #256 ) ) REPRESENTATION_CONTEXT ( 'NONE', 'WORKASPACE' ) );
#249 = ORIENTED_EDGE ( 'NONE', *, *, #307, .T. ) ;
#250 = CIRCLE ( 'NONE', #116, 25.20833052741164693 ) ;
#251 = VECTOR ( 'NONE', #253, 1000.000000000000000 ) ;
#252 = CARTESIAN_POINT ( 'NONE',  ( 25.20833052741166114, 3.087130129224320281E-15, 17.59166947258827918 ) ) ;
#253 = DIRECTION ( 'NONE',  ( -0.000000000000000000, -0.000000000000000000, -1.000000000000000000 ) ) ;
#254 = DIRECTION ( 'NONE',  ( -1.000000000000000000, 1.224646799147353207E-16, 0.000000000000000000 ) ) ;
#255 =( NAMED_UNIT ( * ) PLANE_ANGLE_UNIT ( ) SI_UNIT ( $, .RADIAN. ) );
#256 =( NAMED_UNIT ( * ) SI_UNIT ( $, .STERADIAN. ) SOLID_ANGLE_UNIT ( ) );
#257 = DIRECTION ( 'NONE',  ( -0.000000000000000000, -0.000000000000000000, 1.000000000000000000 ) ) ;
#258 = LINE ( 'NONE', #186, #221 ) ;
#259 = MECHANICAL_DESIGN_GEOMETRIC_PRESENTATION_REPRESENTATION (  '', ( #86 ), #107 ) ;
#260 = VECTOR ( 'NONE', #20, 1000.000000000000000 ) ;
#261 =( GEOMETRIC_REPRESENTATION_CONTEXT ( 3 ) GLOBAL_UNCERTAINTY_ASSIGNED_CONTEXT ( ( #167 ) ) GLOBAL_UNIT_ASSIGNED_CONTEXT ( ( #91, #117, #174 ) ) REPRESENTATION_CONTEXT ( 'NONE', 'WORKASPACE' ) );
#262 = CARTESIAN_POINT ( 'NONE',  ( 0.000000000000000000, 0.000000000000000000, 13.96941892127251350 ) ) ;
#263 = ORIENTED_EDGE ( 'NONE', *, *, #111, .T. ) ;
#264 = CONICAL_SURFACE ( 'NONE', #155, 25.20833052741166114, 0.7853981633975297694 ) ;
#265 = ORIENTED_EDGE ( 'NONE', *, *, #29, .F. ) ;
#266 = EDGE_CURVE ( 'NONE', #98, #89, #258, .T. ) ;
#267 = EDGE_LOOP ( 'NONE', ( #121, #90, #197, #95, #10 ) ) ;
#268 = AXIS2_PLACEMENT_3D ( 'NONE', #317, #36, #38 ) ;
#269 = CARTESIAN_POINT ( 'NONE',  ( 0.000000000000000000, 0.000000000000000000, 17.39999999999997016 ) ) ;
#270 = DIRECTION ( 'NONE',  ( -0.000000000000000000, -0.000000000000000000, 1.000000000000000000 ) ) ;
#271 = ORIENTED_EDGE ( 'NONE', *, *, #72, .F. ) ;
#272 = DIRECTION ( 'NONE',  ( 0.000000000000000000, 1.000000000000000000, 0.000000000000000000 ) ) ;
#273 = ORIENTED_EDGE ( 'NONE', *, *, #55, .T. ) ;
#274 = DIRECTION ( 'NONE',  ( 1.000000000000000000, 0.000000000000000000, 0.000000000000000000 ) ) ;
#275 = CIRCLE ( 'NONE', #314, 25.20247402996205821 ) ;
#276 = DIRECTION ( 'NONE',  ( -0.000000000000000000, -0.000000000000000000, 1.000000000000000000 ) ) ;
#277 = FILL_AREA_STYLE ('',( #76 ) ) ;
#278 = DIRECTION ( 'NONE',  ( -0.5901081306526686499, 7.226740333546186547E-17, 0.8073242187235639689 ) ) ;
#279 = FACE_OUTER_BOUND ( 'NONE', #238, .T. ) ;
#280 = CARTESIAN_POINT ( 'NONE',  ( 0.000000000000000000, 0.000000000000000000, 177.4077014708915385 ) ) ;
#281 = CONICAL_SURFACE ( 'NONE', #303, 25.20833052741166114, 0.7853981633975297694 ) ;
#282 = LINE ( 'NONE', #23, #60 ) ;
#283 = FILL_AREA_STYLE ('',( #2 ) ) ;
#284 = ORIENTED_EDGE ( 'NONE', *, *, #239, .T. ) ;
#285 = PRESENTATION_STYLE_ASSIGNMENT (( #168 ) ) ;
#286 = EDGE_CURVE ( 'NONE', #104, #216, #206, .T. ) ;
#287 = EDGE_LOOP ( 'NONE', ( #190, #125, #273, #37 ) ) ;
#288 = VERTEX_POINT ( 'NONE', #200 ) ;
#289 = APPLICATION_PROTOCOL_DEFINITION ( 'draft international standard', 'automotive_design', 1998, #7 ) ;
#290 = ORIENTED_EDGE ( 'NONE', *, *, #169, .F. ) ;
#291 = AXIS2_PLACEMENT_3D ( 'NONE', #310, #34, #3 ) ;
#292 = AXIS2_PLACEMENT_3D ( 'NONE', #175, #148, #243 ) ;
#293 = ORIENTED_EDGE ( 'NONE', *, *, #286, .T. ) ;
#294 = EDGE_CURVE ( 'NONE', #198, #44, #282, .T. ) ;
#295 = CARTESIAN_POINT ( 'NONE',  ( 0.000000000000000000, 1.012599205874989125E-14, 12.03770147089153220 ) ) ;
#296 = CARTESIAN_POINT ( 'NONE',  ( 0.000000000000000000, 25.20833052741184588, 17.59166947258827918 ) ) ;
#297 = ORIENTED_EDGE ( 'NONE', *, *, #176, .T. ) ;
#298 = ORIENTED_EDGE ( 'NONE', *, *, #96, .F. ) ;
#299 = CARTESIAN_POINT ( 'NONE',  ( 0.000000000000000000, 0.000000000000000000, 17.59166947258827918 ) ) ;
#300 = FACE_OUTER_BOUND ( 'NONE', #144, .T. ) ;
#301 = CARTESIAN_POINT ( 'NONE',  ( -25.39999999999999858, 0.000000000000000000, 17.39999999999997016 ) ) ;
#302 = ADVANCED_FACE ( 'NONE', ( #75 ), #53, .T. ) ;
#303 = AXIS2_PLACEMENT_3D ( 'NONE', #299, #67, #127 ) ;
#304 = CYLINDRICAL_SURFACE ( 'NONE', #11, 25.39999999999999858 ) ;
#305 = CARTESIAN_POINT ( 'NONE',  ( 25.20247402996205821, 0.000000000000000000, 13.96941892127251350 ) ) ;
#306 = VERTEX_POINT ( 'NONE', #301 ) ;
#307 = EDGE_CURVE ( 'NONE', #44, #89, #115, .T. ) ;
#308 = FACE_OUTER_BOUND ( 'NONE', #309, .T. ) ;
#309 = EDGE_LOOP ( 'NONE', ( #318, #188, #59, #68 ) ) ;
#310 = CARTESIAN_POINT ( 'NONE',  ( 0.000000000000000000, 0.000000000000000000, 14.23965329215320885 ) ) ;
#311 = VERTEX_POINT ( 'NONE', #157 ) ;
#312 = EDGE_CURVE ( 'NONE', #306, #44, #135, .T. ) ;
#313 = ORIENTED_EDGE ( 'NONE', *, *, #214, .F. ) ;
#314 = AXIS2_PLACEMENT_3D ( 'NONE', #150, #246, #124 ) ;
#315 = ORIENTED_EDGE ( 'NONE', *, *, #266, .F. ) ;
#316 = AXIS2_PLACEMENT_3D ( 'NONE', #133, #52, #328 ) ;
#317 = CARTESIAN_POINT ( 'NONE',  ( 0.000000000000000000, 0.000000000000000000, 0.000000000000000000 ) ) ;
#318 = ORIENTED_EDGE ( 'NONE', *, *, #199, .F. ) ;
#319 = EDGE_CURVE ( 'NONE', #216, #288, #213, .T. ) ;
#320 = DIRECTION ( 'NONE',  ( 0.000000000000000000, 0.000000000000000000, -1.000000000000000000 ) ) ;
#321 = AXIS2_PLACEMENT_3D ( 'NONE', #280, #254, #329 ) ;
#322 = ORIENTED_EDGE ( 'NONE', *, *, #169, .T. ) ;
#323 = APPLICATION_PROTOCOL_DEFINITION ( 'draft international standard', 'automotive_design', 1998, #78 ) ;
#324 = ORIENTED_EDGE ( 'NONE', *, *, #199, .T. ) ;
#325 = DIRECTION ( 'NONE',  ( 0.000000000000000000, 1.000000000000000000, 0.000000000000000000 ) ) ;
#326 = DIRECTION ( 'NONE',  ( 0.000000000000000000, 0.000000000000000000, -1.000000000000000000 ) ) ;
#327 = ADVANCED_FACE ( 'NONE', ( #160 ), #138, .T. ) ;
#328 = DIRECTION ( 'NONE',  ( 1.000000000000000000, 0.000000000000000000, 0.000000000000000000 ) ) ;
#329 = DIRECTION ( 'NONE',  ( -1.224646799147353207E-16, -1.000000000000000000, 0.000000000000000000 ) ) ;
#330 = CARTESIAN_POINT ( 'NONE',  ( -25.20247402996205821, 3.098507892486505665E-15, 13.96941892127251350 ) ) ;
#331 = ADVANCED_BREP_SHAPE_REPRESENTATION ( 'GLM2-050B-500', ( #131, #268 ), #261 ) ;
#332 = DIRECTION ( 'NONE',  ( 0.5901081306526686499, 0.000000000000000000, 0.8073242187235639689 ) ) ;
ENDSEC;
END-ISO-10303-21;
