ISO-10303-21;
HEADER;
FILE_DESCRIPTION (( 'STEP AP214' ),
    '1' );
FILE_NAME ('150052.STEP',
    '2019-07-05T08:51:10',
    ( '' ),
    ( '' ),
    'SwSTEP 2.0',
    'SolidWorks 2016',
    '' );
FILE_SCHEMA (( 'AUTOMOTIVE_DESIGN' ));
ENDSEC;

DATA;
#1 = AXIS2_PLACEMENT_3D ( 'NONE', #40, #42, #119 ) ;
#2 = CARTESIAN_POINT ( 'NONE',  ( 160.9994978358744500, 65.21684047094032600, 0.0000000000000000000 ) ) ;
#3 = DIRECTION ( 'NONE',  ( -7.228014483236695600E-016, 1.000000000000000000, 0.0000000000000000000 ) ) ;
#4 = CARTESIAN_POINT ( 'NONE',  ( 126.4721913024826800, 65.21684047094034000, 0.0000000000000000000 ) ) ;
#5 = CARTESIAN_POINT ( 'NONE',  ( 124.6909588952891400, 52.71684047094032600, -1.530808498934187600E-015 ) ) ;
#6 = APPLICATION_CONTEXT ( 'automotive_design' ) ;
#7 =( NAMED_UNIT ( * ) SI_UNIT ( $, .STERADIAN. ) SOLID_ANGLE_UNIT ( ) );
#8 = MANIFOLD_SOLID_BREP ( 'Ðý×ª1', #190 ) ;
#9 = ADVANCED_FACE ( 'NONE', ( #155 ), #17, .T. ) ;
#10 = FACE_OUTER_BOUND ( 'NONE', #55, .T. ) ;
#11 = SURFACE_SIDE_STYLE ('',( #38 ) ) ;
#12 =( GEOMETRIC_REPRESENTATION_CONTEXT ( 3 ) GLOBAL_UNCERTAINTY_ASSIGNED_CONTEXT ( ( #150 ) ) GLOBAL_UNIT_ASSIGNED_CONTEXT ( ( #108, #106, #7 ) ) REPRESENTATION_CONTEXT ( 'NONE', 'WORKASPACE' ) );
#13 = COLOUR_RGB ( '',1.000000000000000000, 1.000000000000000000, 1.000000000000000000 ) ;
#14 = CIRCLE ( 'NONE', #158, 57.59999999999998700 ) ;
#15 = EDGE_LOOP ( 'NONE', ( #178, #192, #133 ) ) ;
#16 = DIRECTION ( 'NONE',  ( -8.496118506040342700E-032, 1.224646799147353200E-016, -1.000000000000000000 ) ) ;
#17 = CYLINDRICAL_SURFACE ( 'NONE', #175, 12.49999999999999600 ) ;
#18 = DIRECTION ( 'NONE',  ( 0.0000000000000000000, 1.000000000000000000, 1.224646799147353200E-016 ) ) ;
#19 = DIRECTION ( 'NONE',  ( 0.0000000000000000000, 0.0000000000000000000, -1.000000000000000000 ) ) ;
#20 = APPLICATION_CONTEXT ( 'automotive_design' ) ;
#21 =( NAMED_UNIT ( * ) SI_UNIT ( $, .STERADIAN. ) SOLID_ANGLE_UNIT ( ) );
#22 = ORIENTED_EDGE ( 'NONE', *, *, #186, .T. ) ;
#23 = PRESENTATION_LAYER_ASSIGNMENT (  '', '', ( #172 ) ) ;
#24 = CIRCLE ( 'NONE', #79, 38.39999999999999100 ) ;
#25 = VERTEX_POINT ( 'NONE', #160 ) ;
#26 = VERTEX_POINT ( 'NONE', #174 ) ;
#27 = PRODUCT_DEFINITION_FORMATION_WITH_SPECIFIED_SOURCE ( 'ÈÎºÎ', '', #31, .NOT_KNOWN. ) ;
#28 =( LENGTH_UNIT ( ) NAMED_UNIT ( * ) SI_UNIT ( .MILLI., .METRE. ) );
#29 = FACE_OUTER_BOUND ( 'NONE', #151, .T. ) ;
#30 = CARTESIAN_POINT ( 'NONE',  ( 182.6994978358743000, 65.21684047093972900, 0.0000000000000000000 ) ) ;
#31 = PRODUCT ( '150052', '150052', '', ( #183 ) ) ;
#32 = DIRECTION ( 'NONE',  ( -4.818676322157798400E-016, 1.000000000000000000, 0.0000000000000000000 ) ) ;
#33 = DIRECTION ( 'NONE',  ( 1.000000000000000000, 0.0000000000000000000, 0.0000000000000000000 ) ) ;
#34 = CARTESIAN_POINT ( 'NONE',  ( 115.9444912979631500, 77.71684047094032600, 1.530808498934191100E-015 ) ) ;
#35 = CARTESIAN_POINT ( 'NONE',  ( 182.6994978358743000, 65.21684047093972900, 0.0000000000000000000 ) ) ;
#36 = FACE_OUTER_BOUND ( 'NONE', #132, .T. ) ;
#37 = AXIS2_PLACEMENT_3D ( 'NONE', #50, #16, #154 ) ;
#38 = SURFACE_STYLE_FILL_AREA ( #136 ) ;
#39 = APPLICATION_PROTOCOL_DEFINITION ( 'draft international standard', 'automotive_design', 1998, #20 ) ;
#40 = CARTESIAN_POINT ( 'NONE',  ( 0.0000000000000000000, 0.0000000000000000000, 0.0000000000000000000 ) ) ;
#41 = FACE_OUTER_BOUND ( 'NONE', #127, .T. ) ;
#42 = DIRECTION ( 'NONE',  ( 0.0000000000000000000, 0.0000000000000000000, 1.000000000000000000 ) ) ;
#43 = EDGE_CURVE ( 'NONE', #170, #25, #81, .T. ) ;
#44 = AXIS2_PLACEMENT_3D ( 'NONE', #53, #167, #129 ) ;
#45 = UNCERTAINTY_MEASURE_WITH_UNIT (LENGTH_MEASURE( 1.000000000000000100E-005 ), #28, 'distance_accuracy_value', 'NONE');
#46 = CIRCLE ( 'NONE', #44, 12.49999999999999100 ) ;
#47 =( NAMED_UNIT ( * ) PLANE_ANGLE_UNIT ( ) SI_UNIT ( $, .RADIAN. ) );
#48 = CYLINDRICAL_SURFACE ( 'NONE', #61, 12.49999999999999600 ) ;
#49 = ORIENTED_EDGE ( 'NONE', *, *, #58, .T. ) ;
#50 = CARTESIAN_POINT ( 'NONE',  ( 160.9994978358744500, 65.21684047094032600, 0.0000000000000000000 ) ) ;
#51 = CARTESIAN_POINT ( 'NONE',  ( 182.6994978358743000, 65.21684047093972900, 0.0000000000000000000 ) ) ;
#52 = CARTESIAN_POINT ( 'NONE',  ( 182.6994978358743000, 65.21684047093972900, 0.0000000000000000000 ) ) ;
#53 = CARTESIAN_POINT ( 'NONE',  ( 124.6909588952891400, 65.21684047094032600, 0.0000000000000000000 ) ) ;
#54 = EDGE_CURVE ( 'NONE', #26, #157, #59, .T. ) ;
#55 = EDGE_LOOP ( 'NONE', ( #137, #125, #49 ) ) ;
#56 = ORIENTED_EDGE ( 'NONE', *, *, #43, .T. ) ;
#57 = AXIS2_PLACEMENT_3D ( 'NONE', #35, #19, #32 ) ;
#58 = EDGE_CURVE ( 'NONE', #170, #121, #120, .T. ) ;
#59 = CIRCLE ( 'NONE', #110, 12.49999999999999100 ) ;
#60 = ORIENTED_EDGE ( 'NONE', *, *, #112, .F. ) ;
#61 = AXIS2_PLACEMENT_3D ( 'NONE', #165, #166, #117 ) ;
#62 = ADVANCED_FACE ( 'NONE', ( #41 ), #173, .T. ) ;
#63 = VECTOR ( 'NONE', #107, 1000.000000000000000 ) ;
#64 = DIRECTION ( 'NONE',  ( -1.000000000000000000, -6.937607244762875000E-016, -0.0000000000000000000 ) ) ;
#65 = AXIS2_PLACEMENT_3D ( 'NONE', #52, #138, #86 ) ;
#66 = DIRECTION ( 'NONE',  ( -0.0000000000000000000, 0.0000000000000000000, -1.000000000000000000 ) ) ;
#67 = DIRECTION ( 'NONE',  ( 0.0000000000000000000, -1.000000000000000000, 0.0000000000000000000 ) ) ;
#68 = CARTESIAN_POINT ( 'NONE',  ( 125.0994978358743200, 65.21684047093968700, 0.0000000000000000000 ) ) ;
#69 =( GEOMETRIC_REPRESENTATION_CONTEXT ( 3 ) GLOBAL_UNCERTAINTY_ASSIGNED_CONTEXT ( ( #45 ) ) GLOBAL_UNIT_ASSIGNED_CONTEXT ( ( #28, #47, #148 ) ) REPRESENTATION_CONTEXT ( 'NONE', 'WORKASPACE' ) );
#70 = LINE ( 'NONE', #34, #169 ) ;
#71 = FILL_AREA_STYLE ('',( #152 ) ) ;
#72 = AXIS2_PLACEMENT_3D ( 'NONE', #140, #153, #67 ) ;
#73 = SHAPE_DEFINITION_REPRESENTATION ( #87, #80 ) ;
#74 = CARTESIAN_POINT ( 'NONE',  ( 126.4721913024826800, 77.71684047094032600, 0.0000000000000000000 ) ) ;
#75 = UNCERTAINTY_MEASURE_WITH_UNIT (LENGTH_MEASURE( 1.000000000000000100E-005 ), #184, 'distance_accuracy_value', 'NONE');
#76 = ADVANCED_FACE ( 'NONE', ( #36 ), #134, .T. ) ;
#77 = EDGE_CURVE ( 'NONE', #157, #26, #46, .T. ) ;
#78 = FACE_OUTER_BOUND ( 'NONE', #15, .T. ) ;
#79 = AXIS2_PLACEMENT_3D ( 'NONE', #115, #88, #103 ) ;
#80 = ADVANCED_BREP_SHAPE_REPRESENTATION ( '150052', ( #8, #1 ), #12 ) ;
#81 = CIRCLE ( 'NONE', #191, 12.50000000000000400 ) ;
#82 = PRODUCT_DEFINITION ( 'Î´Öª', '', #27, #104 ) ;
#83 = MECHANICAL_DESIGN_GEOMETRIC_PRESENTATION_REPRESENTATION (  '', ( #172 ), #122 ) ;
#84 = VERTEX_POINT ( 'NONE', #102 ) ;
#85 = ORIENTED_EDGE ( 'NONE', *, *, #135, .T. ) ;
#86 = DIRECTION ( 'NONE',  ( -4.818676322157798400E-016, 1.000000000000000000, 0.0000000000000000000 ) ) ;
#87 = PRODUCT_DEFINITION_SHAPE ( 'NONE', 'NONE',  #82 ) ;
#88 = DIRECTION ( 'NONE',  ( -0.0000000000000000000, 0.0000000000000000000, 1.000000000000000000 ) ) ;
#89 = ORIENTED_EDGE ( 'NONE', *, *, #54, .F. ) ;
#90 = AXIS2_PLACEMENT_3D ( 'NONE', #2, #113, #180 ) ;
#91 = SPHERICAL_SURFACE ( 'NONE', #65, 57.59999999999998700 ) ;
#92 = PRESENTATION_STYLE_ASSIGNMENT (( #126 ) ) ;
#93 = EDGE_CURVE ( 'NONE', #25, #121, #14, .T. ) ;
#94 = ADVANCED_FACE ( 'NONE', ( #10 ), #188, .F. ) ;
#95 = FILL_AREA_STYLE_COLOUR ( '', #118 ) ;
#96 = DIRECTION ( 'NONE',  ( -1.000000000000000000, -6.937607244762875000E-016, -0.0000000000000000000 ) ) ;
#97 = ADVANCED_FACE ( 'NONE', ( #78 ), #91, .F. ) ;
#98 = ORIENTED_EDGE ( 'NONE', *, *, #130, .T. ) ;
#99 = ORIENTED_EDGE ( 'NONE', *, *, #77, .T. ) ;
#100 = DIRECTION ( 'NONE',  ( 1.110223024625157300E-015, -1.000000000000000000, 0.0000000000000000000 ) ) ;
#101 = PRESENTATION_LAYER_ASSIGNMENT (  '', '', ( #141 ) ) ;
#102 = CARTESIAN_POINT ( 'NONE',  ( 122.5994978358744600, 65.21684047094029800, 0.0000000000000000000 ) ) ;
#103 = DIRECTION ( 'NONE',  ( 1.000000000000000000, 0.0000000000000000000, 0.0000000000000000000 ) ) ;
#104 = PRODUCT_DEFINITION_CONTEXT ( 'detailed design', #20, 'design' ) ;
#105 = DIRECTION ( 'NONE',  ( 0.0000000000000000000, -1.000000000000000000, 0.0000000000000000000 ) ) ;
#106 =( NAMED_UNIT ( * ) PLANE_ANGLE_UNIT ( ) SI_UNIT ( $, .RADIAN. ) );
#107 = DIRECTION ( 'NONE',  ( -1.000000000000000000, -6.937607244762875000E-016, -0.0000000000000000000 ) ) ;
#108 =( LENGTH_UNIT ( ) NAMED_UNIT ( * ) SI_UNIT ( .MILLI., .METRE. ) );
#109 =( NAMED_UNIT ( * ) PLANE_ANGLE_UNIT ( ) SI_UNIT ( $, .RADIAN. ) );
#110 = AXIS2_PLACEMENT_3D ( 'NONE', #181, #64, #100 ) ;
#111 = ORIENTED_EDGE ( 'NONE', *, *, #114, .T. ) ;
#112 = EDGE_CURVE ( 'NONE', #170, #26, #70, .T. ) ;
#113 = DIRECTION ( 'NONE',  ( -0.0000000000000000000, 0.0000000000000000000, -1.000000000000000000 ) ) ;
#114 = EDGE_CURVE ( 'NONE', #157, #84, #182, .T. ) ;
#115 = CARTESIAN_POINT ( 'NONE',  ( 160.9994978358744500, 65.21684047094032600, 0.0000000000000000000 ) ) ;
#116 = SURFACE_STYLE_FILL_AREA ( #71 ) ;
#117 = DIRECTION ( 'NONE',  ( 1.110223024625156900E-015, -1.000000000000000000, 0.0000000000000000000 ) ) ;
#118 = COLOUR_RGB ( '',1.000000000000000000, 1.000000000000000000, 1.000000000000000000 ) ;
#119 = DIRECTION ( 'NONE',  ( 1.000000000000000000, 0.0000000000000000000, 0.0000000000000000000 ) ) ;
#120 = CIRCLE ( 'NONE', #124, 57.59999999999998700 ) ;
#121 = VERTEX_POINT ( 'NONE', #68 ) ;
#122 =( GEOMETRIC_REPRESENTATION_CONTEXT ( 3 ) GLOBAL_UNCERTAINTY_ASSIGNED_CONTEXT ( ( #75 ) ) GLOBAL_UNIT_ASSIGNED_CONTEXT ( ( #184, #109, #21 ) ) REPRESENTATION_CONTEXT ( 'NONE', 'WORKASPACE' ) );
#123 = DIRECTION ( 'NONE',  ( 1.110223024625156900E-015, -1.000000000000000000, 0.0000000000000000000 ) ) ;
#124 = AXIS2_PLACEMENT_3D ( 'NONE', #30, #164, #33 ) ;
#125 = ORIENTED_EDGE ( 'NONE', *, *, #43, .F. ) ;
#126 = SURFACE_STYLE_USAGE ( .BOTH. , #11 ) ;
#127 = EDGE_LOOP ( 'NONE', ( #159, #111, #162 ) ) ;
#128 = MECHANICAL_DESIGN_GEOMETRIC_PRESENTATION_REPRESENTATION (  '', ( #141 ), #69 ) ;
#129 = DIRECTION ( 'NONE',  ( 1.110223024625157300E-015, -1.000000000000000000, 0.0000000000000000000 ) ) ;
#130 = EDGE_CURVE ( 'NONE', #26, #84, #24, .T. ) ;
#131 = SURFACE_STYLE_USAGE ( .BOTH. , #168 ) ;
#132 = EDGE_LOOP ( 'NONE', ( #185, #99, #98 ) ) ;
#133 = ORIENTED_EDGE ( 'NONE', *, *, #58, .F. ) ;
#134 = SPHERICAL_SURFACE ( 'NONE', #90, 38.39999999999999900 ) ;
#135 = EDGE_CURVE ( 'NONE', #25, #170, #145, .T. ) ;
#136 = FILL_AREA_STYLE ('',( #95 ) ) ;
#137 = ORIENTED_EDGE ( 'NONE', *, *, #93, .F. ) ;
#138 = DIRECTION ( 'NONE',  ( 0.0000000000000000000, 0.0000000000000000000, -1.000000000000000000 ) ) ;
#139 = DIRECTION ( 'NONE',  ( -8.496118506040342700E-032, 1.224646799147353200E-016, -1.000000000000000000 ) ) ;
#140 = CARTESIAN_POINT ( 'NONE',  ( 126.4721913024826800, 65.21684047094034000, 0.0000000000000000000 ) ) ;
#141 = STYLED_ITEM ( 'NONE', ( #92 ), #8 ) ;
#142 = DIRECTION ( 'NONE',  ( -1.000000000000000000, -6.937607244762875000E-016, -0.0000000000000000000 ) ) ;
#143 = APPLICATION_PROTOCOL_DEFINITION ( 'draft international standard', 'automotive_design', 1998, #6 ) ;
#144 = LINE ( 'NONE', #156, #63 ) ;
#145 = CIRCLE ( 'NONE', #72, 12.50000000000000400 ) ;
#146 = PRODUCT_RELATED_PRODUCT_CATEGORY ( 'part', '', ( #31 ) ) ;
#147 = EDGE_LOOP ( 'NONE', ( #60, #56, #22, #89 ) ) ;
#148 =( NAMED_UNIT ( * ) SI_UNIT ( $, .STERADIAN. ) SOLID_ANGLE_UNIT ( ) );
#149 = ORIENTED_EDGE ( 'NONE', *, *, #77, .F. ) ;
#150 = UNCERTAINTY_MEASURE_WITH_UNIT (LENGTH_MEASURE( 1.000000000000000100E-005 ), #108, 'distance_accuracy_value', 'NONE');
#151 = EDGE_LOOP ( 'NONE', ( #85, #163, #149, #189 ) ) ;
#152 = FILL_AREA_STYLE_COLOUR ( '', #13 ) ;
#153 = DIRECTION ( 'NONE',  ( -1.000000000000000000, -6.937607244762875000E-016, -0.0000000000000000000 ) ) ;
#154 = DIRECTION ( 'NONE',  ( 0.0000000000000000000, 1.000000000000000000, 1.224646799147352700E-016 ) ) ;
#155 = FACE_OUTER_BOUND ( 'NONE', #147, .T. ) ;
#156 = CARTESIAN_POINT ( 'NONE',  ( 115.9444912979631800, 52.71684047094032600, 0.0000000000000000000 ) ) ;
#157 = VERTEX_POINT ( 'NONE', #5 ) ;
#158 = AXIS2_PLACEMENT_3D ( 'NONE', #51, #139, #18 ) ;
#159 = ORIENTED_EDGE ( 'NONE', *, *, #54, .T. ) ;
#160 = CARTESIAN_POINT ( 'NONE',  ( 126.4721913024826800, 52.71684047093971500, -1.530808498934189000E-015 ) ) ;
#161 = ADVANCED_FACE ( 'NONE', ( #29 ), #48, .T. ) ;
#162 = ORIENTED_EDGE ( 'NONE', *, *, #130, .F. ) ;
#163 = ORIENTED_EDGE ( 'NONE', *, *, #112, .T. ) ;
#164 = DIRECTION ( 'NONE',  ( 0.0000000000000000000, -0.0000000000000000000, 1.000000000000000000 ) ) ;
#165 = CARTESIAN_POINT ( 'NONE',  ( 115.9444912979631700, 65.21684047094032600, 0.0000000000000000000 ) ) ;
#166 = DIRECTION ( 'NONE',  ( -1.000000000000000000, -6.937607244762875000E-016, -0.0000000000000000000 ) ) ;
#167 = DIRECTION ( 'NONE',  ( -1.000000000000000000, -6.937607244762875000E-016, -0.0000000000000000000 ) ) ;
#168 = SURFACE_SIDE_STYLE ('',( #116 ) ) ;
#169 = VECTOR ( 'NONE', #142, 1000.000000000000000 ) ;
#170 = VERTEX_POINT ( 'NONE', #74 ) ;
#171 = PRESENTATION_STYLE_ASSIGNMENT (( #131 ) ) ;
#172 = STYLED_ITEM ( 'NONE', ( #171 ), #80 ) ;
#173 = SPHERICAL_SURFACE ( 'NONE', #187, 38.39999999999999900 ) ;
#174 = CARTESIAN_POINT ( 'NONE',  ( 124.6909588952891100, 77.71684047094029800, 0.0000000000000000000 ) ) ;
#175 = AXIS2_PLACEMENT_3D ( 'NONE', #176, #96, #123 ) ;
#176 = CARTESIAN_POINT ( 'NONE',  ( 115.9444912979631700, 65.21684047094032600, 0.0000000000000000000 ) ) ;
#177 = DIRECTION ( 'NONE',  ( -1.000000000000000000, -6.937607244762875000E-016, -0.0000000000000000000 ) ) ;
#178 = ORIENTED_EDGE ( 'NONE', *, *, #135, .F. ) ;
#179 = CARTESIAN_POINT ( 'NONE',  ( 160.9994978358744500, 65.21684047094032600, 0.0000000000000000000 ) ) ;
#180 = DIRECTION ( 'NONE',  ( -7.228014483236695600E-016, 1.000000000000000000, 0.0000000000000000000 ) ) ;
#181 = CARTESIAN_POINT ( 'NONE',  ( 124.6909588952891400, 65.21684047094032600, 0.0000000000000000000 ) ) ;
#182 = CIRCLE ( 'NONE', #37, 38.40000000000000600 ) ;
#183 = PRODUCT_CONTEXT ( 'NONE', #6, 'mechanical' ) ;
#184 =( LENGTH_UNIT ( ) NAMED_UNIT ( * ) SI_UNIT ( .MILLI., .METRE. ) );
#185 = ORIENTED_EDGE ( 'NONE', *, *, #114, .F. ) ;
#186 = EDGE_CURVE ( 'NONE', #25, #157, #144, .T. ) ;
#187 = AXIS2_PLACEMENT_3D ( 'NONE', #179, #66, #3 ) ;
#188 = SPHERICAL_SURFACE ( 'NONE', #57, 57.59999999999998700 ) ;
#189 = ORIENTED_EDGE ( 'NONE', *, *, #186, .F. ) ;
#190 = CLOSED_SHELL ( 'NONE', ( #161, #97, #62, #76, #94, #9 ) ) ;
#191 = AXIS2_PLACEMENT_3D ( 'NONE', #4, #177, #105 ) ;
#192 = ORIENTED_EDGE ( 'NONE', *, *, #93, .T. ) ;
ENDSEC;
END-ISO-10303-21;
