ISO-10303-21;
HEADER;
FILE_DESCRIPTION (( 'STEP AP203' ),
    '1' );
FILE_NAME ('145268.STEP',
    '2021-05-26T07:10:36',
    ( '' ),
    ( '' ),
    'SwSTEP 2.0',
    'SolidWorks 2020',
    '' );
FILE_SCHEMA (( 'CONFIG_CONTROL_DESIGN' ));
ENDSEC;

DATA;
#1 = AXIS2_PLACEMENT_3D ( 'NONE', #113, #357, #18 ) ;
#2 = CARTESIAN_POINT ( 'NONE',  ( 2.046399905258089902, 1.424525781473629826E-14, 0.000000000000000000 ) ) ;
#3 =( LENGTH_UNIT ( ) NAMED_UNIT ( * ) SI_UNIT ( .MILLI., .METRE. ) );
#4 = AXIS2_PLACEMENT_3D ( 'NONE', #153, #238, #276 ) ;
#5 = LOCAL_TIME ( 15, 10, 36.00000000000000000, #356 ) ;
#6 = CARTESIAN_POINT ( 'NONE',  ( 496.0999999999999659, -1.612807493502320206E-14, 0.000000000000000000 ) ) ;
#7 = DIRECTION ( 'NONE',  ( -1.000000000000000000, -6.961130997970640521E-15, 0.000000000000000000 ) ) ;
#8 = AXIS2_PLACEMENT_3D ( 'NONE', #110, #198, #298 ) ;
#9 = CC_DESIGN_PERSON_AND_ORGANIZATION_ASSIGNMENT ( #354, #263, ( #349 ) ) ;
#10 = DIRECTION ( 'NONE',  ( 0.000000000000000000, 0.000000000000000000, 1.000000000000000000 ) ) ;
#11 = EDGE_CURVE ( 'NONE', #185, #244, #66, .T. ) ;
#12 = CALENDAR_DATE ( 2021, 26, 5 ) ;
#13 = EDGE_CURVE ( 'NONE', #333, #313, #335, .T. ) ;
#14 = CIRCLE ( 'NONE', #137, 12.50000000000000000 ) ;
#15 = SPHERICAL_SURFACE ( 'NONE', #104, 39.19999999999999574 ) ;
#16 = CALENDAR_DATE ( 2021, 26, 5 ) ;
#17 = DIRECTION ( 'NONE',  ( 0.000000000000000000, 0.000000000000000000, 1.000000000000000000 ) ) ;
#18 = DIRECTION ( 'NONE',  ( -0.9999999999367337189, 1.124866465893159637E-05, 0.000000000000000000 ) ) ;
#19 = LINE ( 'NONE', #396, #249 ) ;
#20 = AXIS2_PLACEMENT_3D ( 'NONE', #278, #208, #92 ) ;
#21 = EDGE_LOOP ( 'NONE', ( #209, #407, #53 ) ) ;
#22 = EDGE_CURVE ( 'NONE', #395, #313, #160, .T. ) ;
#23 = DIRECTION ( 'NONE',  ( -0.9999823372162217616, 0.005943505327894047820, 0.000000000000000000 ) ) ;
#24 = APPLICATION_CONTEXT ( 'configuration controlled 3d designs of mechanical parts and assemblies' ) ;
#25 = DIRECTION ( 'NONE',  ( 0.000000000000000000, 0.000000000000000000, 1.000000000000000000 ) ) ;
#26 = VERTEX_POINT ( 'NONE', #365 ) ;
#27 = CARTESIAN_POINT ( 'NONE',  ( 2.046399905258149854, 5.137540042187159704E-15, 0.000000000000000000 ) ) ;
#28 = EDGE_LOOP ( 'NONE', ( #68, #188, #404 ) ) ;
#29 = CARTESIAN_POINT ( 'NONE',  ( 6.459529858897103516, 12.50000000000004796, 1.530808498934193691E-15 ) ) ;
#30 = ORIENTED_EDGE ( 'NONE', *, *, #225, .T. ) ;
#31 = VECTOR ( 'NONE', #206, 1000.000000000000000 ) ;
#32 = PRODUCT_DEFINITION ( 'Î´Öª', '', #349, #183 ) ;
#33 = EDGE_LOOP ( 'NONE', ( #51, #329, #369 ) ) ;
#34 = DIRECTION ( 'NONE',  ( -0.9999823372162216506, 0.005943505327894046952, 0.000000000000000000 ) ) ;
#35 = PERSON_AND_ORGANIZATION_ROLE ( 'design_owner' ) ;
#36 = CARTESIAN_POINT ( 'NONE',  ( 2.046399905258149854, 0.2208265205233659600, -12.49804927369998708 ) ) ;
#37 = AXIS2_PLACEMENT_3D ( 'NONE', #210, #303, #123 ) ;
#38 = CARTESIAN_POINT ( 'NONE',  ( 2.046399905258089902, 1.424525781473629826E-14, 0.000000000000000000 ) ) ;
#39 = AXIS2_PLACEMENT_3D ( 'NONE', #224, #301, #17 ) ;
#40 = CARTESIAN_POINT ( 'NONE',  ( 2.046399905258176943, -12.49999999999998934, 0.000000000000000000 ) ) ;
#41 = AXIS2_PLACEMENT_3D ( 'NONE', #337, #245, #306 ) ;
#42 = ADVANCED_FACE ( 'NONE', ( #374 ), #309, .T. ) ;
#43 = CALENDAR_DATE ( 2021, 26, 5 ) ;
#44 = DIRECTION ( 'NONE',  ( 6.938893903907228378E-15, -1.000000000000000000, 0.000000000000000000 ) ) ;
#45 = DATE_AND_TIME ( #48, #91 ) ;
#46 = APPROVAL_PERSON_ORGANIZATION ( #102, #63, #260 ) ;
#47 = SPHERICAL_SURFACE ( 'NONE', #8, 39.19999999999999574 ) ;
#48 = CALENDAR_DATE ( 2021, 26, 5 ) ;
#49 = DIRECTION ( 'NONE',  ( -0.005943505327894047820, -0.9999823372162217616, 3.639283106754496036E-19 ) ) ;
#50 = PERSON_AND_ORGANIZATION_ROLE ( 'creator' ) ;
#51 = ORIENTED_EDGE ( 'NONE', *, *, #97, .T. ) ;
#52 = CARTESIAN_POINT ( 'NONE',  ( 39.19999999999999574, -7.609608115265370201E-15, 0.000000000000000000 ) ) ;
#53 = ORIENTED_EDGE ( 'NONE', *, *, #332, .F. ) ;
#54 = CARTESIAN_POINT ( 'NONE',  ( 6.459529858897277599, -12.49999999999995559, 0.000000000000000000 ) ) ;
#55 = EDGE_LOOP ( 'NONE', ( #101, #141, #30 ) ) ;
#56 = CIRCLE ( 'NONE', #285, 12.50000000000000000 ) ;
#57 = DIRECTION ( 'NONE',  ( -1.000000000000000000, -2.519411946290389970E-15, 0.000000000000000000 ) ) ;
#58 = ORIENTED_EDGE ( 'NONE', *, *, #345, .T. ) ;
#59 = CARTESIAN_POINT ( 'NONE',  ( 6.459529858897190557, 4.496563353308609831E-14, 0.000000000000000000 ) ) ;
#60 = FACE_OUTER_BOUND ( 'NONE', #28, .T. ) ;
#61 = VERTEX_POINT ( 'NONE', #118 ) ;
#62 = AXIS2_PLACEMENT_3D ( 'NONE', #72, #158, #100 ) ;
#63 = APPROVAL ( #219, 'Î´Ö¸¶¨' ) ;
#64 = DIRECTION ( 'NONE',  ( -1.000000000000000000, -2.510525938252070143E-15, 0.000000000000000000 ) ) ;
#65 = AXIS2_PLACEMENT_3D ( 'NONE', #155, #344, #34 ) ;
#66 = LINE ( 'NONE', #124, #361 ) ;
#67 = EDGE_CURVE ( 'NONE', #185, #250, #315, .T. ) ;
#68 = ORIENTED_EDGE ( 'NONE', *, *, #13, .F. ) ;
#69 = PERSON_AND_ORGANIZATION ( #304, #220 ) ;
#70 = DIRECTION ( 'NONE',  ( 0.000000000000000000, 0.000000000000000000, 1.000000000000000000 ) ) ;
#71 = AXIS2_PLACEMENT_3D ( 'NONE', #74, #317, #129 ) ;
#72 = CARTESIAN_POINT ( 'NONE',  ( -1.005538585305060018, -2.524430700321660158E-15, 0.000000000000000000 ) ) ;
#73 = DIRECTION ( 'NONE',  ( -0.9999823372162218726, 0.005943505327860299642, 0.000000000000000000 ) ) ;
#74 = CARTESIAN_POINT ( 'NONE',  ( 6.459529858897190557, 4.496563353308609831E-14, 0.000000000000000000 ) ) ;
#75 = AXIS2_PLACEMENT_3D ( 'NONE', #196, #265, #81 ) ;
#76 = PERSON_AND_ORGANIZATION_ROLE ( 'creator' ) ;
#77 = DIRECTION ( 'NONE',  ( 0.005943505327860298774, 0.9999823372162218726, -3.639283106733586696E-19 ) ) ;
#78 = DATE_AND_TIME ( #43, #98 ) ;
#79 = DATE_TIME_ROLE ( 'classification_date' ) ;
#80 = CIRCLE ( 'NONE', #71, 12.50000000000000000 ) ;
#81 = DIRECTION ( 'NONE',  ( 0.000000000000000000, 0.000000000000000000, 1.000000000000000000 ) ) ;
#82 = PERSON_AND_ORGANIZATION_ROLE ( 'classification_officer' ) ;
#83 = CC_DESIGN_DATE_AND_TIME_ASSIGNMENT ( #78, #79, ( #288 ) ) ;
#84 = CARTESIAN_POINT ( 'NONE',  ( 2.046399905258149854, 5.137540042187159704E-15, 0.000000000000000000 ) ) ;
#85 = ORIENTED_EDGE ( 'NONE', *, *, #378, .F. ) ;
#86 = DIRECTION ( 'NONE',  ( -1.000000000000000000, -2.510525938252070143E-15, 0.000000000000000000 ) ) ;
#87 = EDGE_CURVE ( 'NONE', #280, #307, #400, .T. ) ;
#88 = ADVANCED_FACE ( 'NONE', ( #212 ), #342, .F. ) ;
#89 = ORIENTED_EDGE ( 'NONE', *, *, #187, .F. ) ;
#90 = DIRECTION ( 'NONE',  ( -1.000000000000000000, -2.510525938252070143E-15, 0.000000000000000000 ) ) ;
#91 = LOCAL_TIME ( 15, 10, 36.00000000000000000, #136 ) ;
#92 = DIRECTION ( 'NONE',  ( 0.000000000000000000, 0.000000000000000000, -1.000000000000000000 ) ) ;
#93 = ORIENTED_EDGE ( 'NONE', *, *, #332, .T. ) ;
#94 = DIRECTION ( 'NONE',  ( 0.000000000000000000, 0.000000000000000000, 1.000000000000000000 ) ) ;
#95 = EDGE_LOOP ( 'NONE', ( #254, #128, #127 ) ) ;
#96 = AXIS2_PLACEMENT_3D ( 'NONE', #391, #322, #44 ) ;
#97 = EDGE_CURVE ( 'NONE', #114, #307, #56, .T. ) ;
#98 = LOCAL_TIME ( 15, 10, 36.00000000000000000, #388 ) ;
#99 = EDGE_LOOP ( 'NONE', ( #111, #343, #277, #366, #121, #85 ) ) ;
#100 = DIRECTION ( 'NONE',  ( 2.515349040166370287E-15, -1.000000000000000000, 0.000000000000000000 ) ) ;
#101 = ORIENTED_EDGE ( 'NONE', *, *, #397, .T. ) ;
#102 = PERSON_AND_ORGANIZATION ( #304, #220 ) ;
#103 = DIRECTION ( 'NONE',  ( 0.000000000000000000, 0.000000000000000000, 1.000000000000000000 ) ) ;
#104 = AXIS2_PLACEMENT_3D ( 'NONE', #168, #49, #23 ) ;
#105 = CARTESIAN_POINT ( 'NONE',  ( 0.000000000000000000, 0.000000000000000000, 0.000000000000000000 ) ) ;
#106 = APPROVAL ( #108, 'Î´Ö¸¶¨' ) ;
#107 = CYLINDRICAL_SURFACE ( 'NONE', #319, 12.50000000000000000 ) ;
#108 = APPROVAL_STATUS ( 'not_yet_approved' ) ;
#109 = DIRECTION ( 'NONE',  ( 0.000000000000000000, 0.000000000000000000, 1.000000000000000000 ) ) ;
#110 = CARTESIAN_POINT ( 'NONE',  ( 39.19999999999999574, -7.609608115265370201E-15, 0.000000000000000000 ) ) ;
#111 = ORIENTED_EDGE ( 'NONE', *, *, #87, .F. ) ;
#112 = CIRCLE ( 'NONE', #341, 12.50000000000000000 ) ;
#113 = CARTESIAN_POINT ( 'NONE',  ( 496.0999999999999659, -1.612807493502320206E-14, 0.000000000000000000 ) ) ;
#114 = VERTEX_POINT ( 'NONE', #119 ) ;
#115 = DIRECTION ( 'NONE',  ( -1.000000000000000000, -6.972200594645950415E-15, 0.000000000000000000 ) ) ;
#116 = ADVANCED_FACE ( 'NONE', ( #181 ), #398, .F. ) ;
#117 = EDGE_CURVE ( 'NONE', #280, #360, #264, .T. ) ;
#118 = CARTESIAN_POINT ( 'NONE',  ( 2.046399905258180940, -12.49999999999999467, 0.000000000000000000 ) ) ;
#119 = CARTESIAN_POINT ( 'NONE',  ( -4.057477075868280991, -5.021051876504148963E-15, 12.50000000000004619 ) ) ;
#120 =( GEOMETRIC_REPRESENTATION_CONTEXT ( 3 ) GLOBAL_UNCERTAINTY_ASSIGNED_CONTEXT ( ( #248 ) ) GLOBAL_UNIT_ASSIGNED_CONTEXT ( ( #3, #131, #164 ) ) REPRESENTATION_CONTEXT ( 'NONE', 'WORKASPACE' ) );
#121 = ORIENTED_EDGE ( 'NONE', *, *, #352, .F. ) ;
#122 = ADVANCED_BREP_SHAPE_REPRESENTATION ( '145268', ( #148, #145, #401 ), #120 ) ;
#123 = DIRECTION ( 'NONE',  ( -0.9999999999367337189, 1.124866465893159637E-05, 0.000000000000000000 ) ) ;
#124 = CARTESIAN_POINT ( 'NONE',  ( 4.252964882077552744, 12.50000000000003020, 1.530808498934191521E-15 ) ) ;
#125 = DIRECTION ( 'NONE',  ( -1.000000000000000000, -6.961130997970640521E-15, 0.000000000000000000 ) ) ;
#126 = ORIENTED_EDGE ( 'NONE', *, *, #117, .F. ) ;
#127 = ORIENTED_EDGE ( 'NONE', *, *, #190, .T. ) ;
#128 = ORIENTED_EDGE ( 'NONE', *, *, #352, .T. ) ;
#129 = DIRECTION ( 'NONE',  ( 0.000000000000000000, 0.000000000000000000, 1.000000000000000000 ) ) ;
#130 = PRODUCT ( '145268', '145268', '', ( #290 ) ) ;
#131 =( NAMED_UNIT ( * ) PLANE_ANGLE_UNIT ( ) SI_UNIT ( $, .RADIAN. ) );
#132 = CIRCLE ( 'NONE', #271, 12.50000000000000000 ) ;
#133 = EDGE_CURVE ( 'NONE', #61, #217, #241, .T. ) ;
#134 = FACE_OUTER_BOUND ( 'NONE', #373, .T. ) ;
#135 = EDGE_CURVE ( 'NONE', #381, #280, #258, .T. ) ;
#136 = COORDINATED_UNIVERSAL_TIME_OFFSET ( 8, 0, .AHEAD. ) ;
#137 = AXIS2_PLACEMENT_3D ( 'NONE', #347, #194, #161 ) ;
#138 = FACE_OUTER_BOUND ( 'NONE', #95, .T. ) ;
#139 = AXIS2_PLACEMENT_3D ( 'NONE', #243, #147, #25 ) ;
#140 = CARTESIAN_POINT ( 'NONE',  ( 2.046399905258002416, 12.50000000000001421, 1.530808498934191521E-15 ) ) ;
#141 = ORIENTED_EDGE ( 'NONE', *, *, #13, .T. ) ;
#142 = DIRECTION ( 'NONE',  ( 0.000000000000000000, 0.000000000000000000, 1.000000000000000000 ) ) ;
#143 = AXIS2_PLACEMENT_3D ( 'NONE', #355, #299, #144 ) ;
#144 = DIRECTION ( 'NONE',  ( -0.9999823372162218726, 0.005943505327860299642, 0.000000000000000000 ) ) ;
#145 = MANIFOLD_SOLID_BREP ( 'Áã¼þ3.stp[2]', #294 ) ;
#146 = DIRECTION ( 'NONE',  ( 0.000000000000000000, 0.000000000000000000, 1.000000000000000000 ) ) ;
#147 = DIRECTION ( 'NONE',  ( -1.000000000000000000, -2.510525938252070143E-15, 0.000000000000000000 ) ) ;
#148 = MANIFOLD_SOLID_BREP ( 'Áã¼þ3.stp[1]', #172 ) ;
#149 = ORIENTED_EDGE ( 'NONE', *, *, #261, .F. ) ;
#150 = DIRECTION ( 'NONE',  ( 0.000000000000000000, 0.000000000000000000, 1.000000000000000000 ) ) ;
#151 = CIRCLE ( 'NONE', #353, 12.50000000000000000 ) ;
#152 = CARTESIAN_POINT ( 'NONE',  ( 4.252964882077639786, 2.960544567391119829E-14, 0.000000000000000000 ) ) ;
#153 = CARTESIAN_POINT ( 'NONE',  ( -41.00000000000000000, -5.021051876504148963E-15, 0.000000000000000000 ) ) ;
#154 = ORIENTED_EDGE ( 'NONE', *, *, #281, .F. ) ;
#155 = CARTESIAN_POINT ( 'NONE',  ( 39.19999999999999574, -7.609608115265370201E-15, 0.000000000000000000 ) ) ;
#156 = EDGE_CURVE ( 'NONE', #61, #381, #173, .T. ) ;
#157 = ORIENTED_EDGE ( 'NONE', *, *, #67, .T. ) ;
#158 = DIRECTION ( 'NONE',  ( -1.000000000000000000, -2.519411946290389970E-15, 0.000000000000000000 ) ) ;
#159 = EDGE_CURVE ( 'NONE', #26, #114, #213, .T. ) ;
#160 = CIRCLE ( 'NONE', #165, 12.50000000000000000 ) ;
#161 = DIRECTION ( 'NONE',  ( 0.000000000000000000, 0.000000000000000000, 1.000000000000000000 ) ) ;
#162 = SPHERICAL_SURFACE ( 'NONE', #232, 39.19999999999999574 ) ;
#163 = CIRCLE ( 'NONE', #75, 12.50000000000000000 ) ;
#164 =( NAMED_UNIT ( * ) SI_UNIT ( $, .STERADIAN. ) SOLID_ANGLE_UNIT ( ) );
#165 = AXIS2_PLACEMENT_3D ( 'NONE', #2, #125, #150 ) ;
#166 = ADVANCED_FACE ( 'NONE', ( #60 ), #47, .T. ) ;
#167 = PERSON_AND_ORGANIZATION ( #304, #220 ) ;
#168 = CARTESIAN_POINT ( 'NONE',  ( 39.19999999999999574, -7.609608115265370201E-15, 0.000000000000000000 ) ) ;
#169 = AXIS2_PLACEMENT_3D ( 'NONE', #192, #7, #351 ) ;
#170 = FACE_OUTER_BOUND ( 'NONE', #21, .T. ) ;
#171 = APPROVAL_DATE_TIME ( #45, #402 ) ;
#172 = CLOSED_SHELL ( 'NONE', ( #321, #380, #88, #259, #42, #300 ) ) ;
#173 = CIRCLE ( 'NONE', #394, 12.50000000000000000 ) ;
#174 = CARTESIAN_POINT ( 'NONE',  ( 6.459529858897190557, 4.496563353308609831E-14, 0.000000000000000000 ) ) ;
#175 = CC_DESIGN_DATE_AND_TIME_ASSIGNMENT ( #328, #222, ( #32 ) ) ;
#176 = SPHERICAL_SURFACE ( 'NONE', #143, 39.19999999999999574 ) ;
#177 = CIRCLE ( 'NONE', #384, 12.50000000000000000 ) ;
#178 = CARTESIAN_POINT ( 'NONE',  ( 2.046399905258088125, 0.2208265205246202345, 12.49804927369987873 ) ) ;
#179 = ORIENTED_EDGE ( 'NONE', *, *, #393, .T. ) ;
#180 = VECTOR ( 'NONE', #57, 1000.000000000000000 ) ;
#181 = FACE_OUTER_BOUND ( 'NONE', #186, .T. ) ;
#182 = CARTESIAN_POINT ( 'NONE',  ( -1.005538585305091548, 12.49999999999999822, 1.530808498934191521E-15 ) ) ;
#183 = DESIGN_CONTEXT ( 'detailed design', #24, 'design' ) ;
#184 = AXIS2_PLACEMENT_3D ( 'NONE', #52, #77, #262 ) ;
#185 = VERTEX_POINT ( 'NONE', #29 ) ;
#186 = EDGE_LOOP ( 'NONE', ( #234, #179, #336 ) ) ;
#187 = EDGE_CURVE ( 'NONE', #333, #395, #163, .T. ) ;
#188 = ORIENTED_EDGE ( 'NONE', *, *, #187, .T. ) ;
#189 = APPLICATION_PROTOCOL_DEFINITION ( 'international standard', 'config_control_design', 1994, #282 ) ;
#190 = EDGE_CURVE ( 'NONE', #217, #114, #151, .T. ) ;
#191 = AXIS2_PLACEMENT_3D ( 'NONE', #6, #320, #383 ) ;
#192 = CARTESIAN_POINT ( 'NONE',  ( 6.459529858897190557, 4.496563353308609831E-14, 0.000000000000000000 ) ) ;
#193 = FACE_OUTER_BOUND ( 'NONE', #305, .T. ) ;
#194 = DIRECTION ( 'NONE',  ( -1.000000000000000000, -2.510525938252070143E-15, 0.000000000000000000 ) ) ;
#195 = CARTESIAN_POINT ( 'NONE',  ( 2.046399905258149854, 0.2208265205233659600, 12.49804927369998708 ) ) ;
#196 = CARTESIAN_POINT ( 'NONE',  ( 2.046399905258089902, 1.424525781473629826E-14, 0.000000000000000000 ) ) ;
#197 = SECURITY_CLASSIFICATION_LEVEL ( 'unclassified' ) ;
#198 = DIRECTION ( 'NONE',  ( -0.005943505327894047820, -0.9999823372162217616, 3.639283106754496036E-19 ) ) ;
#199 = APPROVAL_STATUS ( 'not_yet_approved' ) ;
#200 = CYLINDRICAL_SURFACE ( 'NONE', #96, 12.50000000000000000 ) ;
#201 = COORDINATED_UNIVERSAL_TIME_OFFSET ( 8, 0, .AHEAD. ) ;
#202 = ADVANCED_FACE ( 'NONE', ( #170 ), #324, .F. ) ;
#203 = ORIENTED_EDGE ( 'NONE', *, *, #225, .F. ) ;
#204 = FACE_OUTER_BOUND ( 'NONE', #207, .T. ) ;
#205 = ADVANCED_FACE ( 'NONE', ( #204 ), #200, .T. ) ;
#206 = DIRECTION ( 'NONE',  ( -1.000000000000000000, -2.519411946290389970E-15, 0.000000000000000000 ) ) ;
#207 = EDGE_LOOP ( 'NONE', ( #58, #93, #375, #203, #274, #242 ) ) ;
#208 = DIRECTION ( 'NONE',  ( 0.000000000000000000, -1.000000000000000000, 0.000000000000000000 ) ) ;
#209 = ORIENTED_EDGE ( 'NONE', *, *, #393, .F. ) ;
#210 = CARTESIAN_POINT ( 'NONE',  ( 496.0999999999999659, -1.612807493502320206E-14, 0.000000000000000000 ) ) ;
#211 = ORIENTED_EDGE ( 'NONE', *, *, #135, .T. ) ;
#212 = FACE_OUTER_BOUND ( 'NONE', #33, .T. ) ;
#213 = CIRCLE ( 'NONE', #20, 39.00000000000000000 ) ;
#214 = ORIENTED_EDGE ( 'NONE', *, *, #156, .T. ) ;
#215 = AXIS2_PLACEMENT_3D ( 'NONE', #59, #334, #94 ) ;
#216 = LOCAL_TIME ( 15, 10, 36.00000000000000000, #296 ) ;
#217 = VERTEX_POINT ( 'NONE', #327 ) ;
#218 = DIRECTION ( 'NONE',  ( -1.000000000000000000, -6.972200594645950415E-15, 0.000000000000000000 ) ) ;
#219 = APPROVAL_STATUS ( 'not_yet_approved' ) ;
#220 = ORGANIZATION ( 'Î´Ö¸¶¨', 'Î´Ö¸¶¨', '' ) ;
#221 = DIRECTION ( 'NONE',  ( -1.000000000000000000, -6.961130997970640521E-15, 0.000000000000000000 ) ) ;
#222 = DATE_TIME_ROLE ( 'creation_date' ) ;
#223 = ADVANCED_FACE ( 'NONE', ( #272 ), #15, .T. ) ;
#224 = CARTESIAN_POINT ( 'NONE',  ( 2.046399905258089902, 1.424525781473629826E-14, 0.000000000000000000 ) ) ;
#225 = EDGE_CURVE ( 'NONE', #313, #244, #367, .T. ) ;
#226 = PERSON_AND_ORGANIZATION ( #304, #220 ) ;
#227 = FACE_OUTER_BOUND ( 'NONE', #239, .T. ) ;
#228 = PERSON_AND_ORGANIZATION ( #304, #220 ) ;
#229 = DIRECTION ( 'NONE',  ( 0.000000000000000000, 0.000000000000000000, 1.000000000000000000 ) ) ;
#230 = DATE_AND_TIME ( #266, #275 ) ;
#231 = ORIENTED_EDGE ( 'NONE', *, *, #97, .F. ) ;
#232 = AXIS2_PLACEMENT_3D ( 'NONE', #385, #350, #73 ) ;
#233 = DIRECTION ( 'NONE',  ( 1.000000000000000000, 0.000000000000000000, 0.000000000000000000 ) ) ;
#234 = ORIENTED_EDGE ( 'NONE', *, *, #236, .F. ) ;
#235 = APPROVAL_PERSON_ORGANIZATION ( #167, #402, #323 ) ;
#236 = EDGE_CURVE ( 'NONE', #250, #310, #132, .T. ) ;
#237 = DIRECTION ( 'NONE',  ( -1.000000000000000000, -6.961130997970640521E-15, 0.000000000000000000 ) ) ;
#238 = DIRECTION ( 'NONE',  ( 0.000000000000000000, 1.000000000000000000, 0.000000000000000000 ) ) ;
#239 = EDGE_LOOP ( 'NONE', ( #154, #126, #399 ) ) ;
#240 = AXIS2_PLACEMENT_3D ( 'NONE', #267, #389, #233 ) ;
#241 = LINE ( 'NONE', #339, #31 ) ;
#242 = ORIENTED_EDGE ( 'NONE', *, *, #302, .F. ) ;
#243 = CARTESIAN_POINT ( 'NONE',  ( 2.046399905258149854, 5.137540042187159704E-15, 0.000000000000000000 ) ) ;
#244 = VERTEX_POINT ( 'NONE', #140 ) ;
#245 = DIRECTION ( 'NONE',  ( -1.000000000000000000, -2.519411946290389970E-15, 0.000000000000000000 ) ) ;
#246 = ORIENTED_EDGE ( 'NONE', *, *, #133, .F. ) ;
#247 = CC_DESIGN_PERSON_AND_ORGANIZATION_ASSIGNMENT ( #69, #35, ( #130 ) ) ;
#248 = UNCERTAINTY_MEASURE_WITH_UNIT (LENGTH_MEASURE( 1.000000000000000082E-05 ), #3, 'distance_accuracy_value', 'NONE');
#249 = VECTOR ( 'NONE', #115, 1000.000000000000000 ) ;
#250 = VERTEX_POINT ( 'NONE', #270 ) ;
#251 = DIRECTION ( 'NONE',  ( 1.000000000000000000, 0.000000000000000000, 0.000000000000000000 ) ) ;
#252 = CC_DESIGN_APPROVAL ( #402, ( #288 ) ) ;
#253 = PRODUCT_DEFINITION_SHAPE ( 'NONE', 'NONE',  #32 ) ;
#254 = ORIENTED_EDGE ( 'NONE', *, *, #159, .F. ) ;
#255 = APPLICATION_PROTOCOL_DEFINITION ( 'international standard', 'config_control_design', 1994, #24 ) ;
#256 = DIRECTION ( 'NONE',  ( -1.000000000000000000, -2.510525938252070143E-15, 0.000000000000000000 ) ) ;
#257 = CIRCLE ( 'NONE', #169, 12.50000000000000000 ) ;
#258 = CIRCLE ( 'NONE', #370, 12.50000000000000000 ) ;
#259 = ADVANCED_FACE ( 'NONE', ( #138 ), #292, .F. ) ;
#260 = APPROVAL_ROLE ( '' ) ;
#261 = EDGE_CURVE ( 'NONE', #360, #61, #308, .T. ) ;
#262 = DIRECTION ( 'NONE',  ( -0.9999823372162218726, 0.005943505327860297907, 0.000000000000000000 ) ) ;
#263 = PERSON_AND_ORGANIZATION_ROLE ( 'design_supplier' ) ;
#264 = CIRCLE ( 'NONE', #139, 12.50000000000000000 ) ;
#265 = DIRECTION ( 'NONE',  ( -1.000000000000000000, -6.961130997970640521E-15, 0.000000000000000000 ) ) ;
#266 = CALENDAR_DATE ( 2021, 26, 5 ) ;
#267 = CARTESIAN_POINT ( 'NONE',  ( -41.00000000000000000, -5.021051876504148963E-15, 0.000000000000000000 ) ) ;
#268 = SHAPE_DEFINITION_REPRESENTATION ( #253, #122 ) ;
#269 = VERTEX_POINT ( 'NONE', #330 ) ;
#270 = CARTESIAN_POINT ( 'NONE',  ( 6.459529858897193222, 0.005507801452391204895, -12.49999878656228525 ) ) ;
#271 = AXIS2_PLACEMENT_3D ( 'NONE', #174, #237, #142 ) ;
#272 = FACE_OUTER_BOUND ( 'NONE', #55, .T. ) ;
#273 = DIRECTION ( 'NONE',  ( 0.000000000000000000, 0.000000000000000000, 1.000000000000000000 ) ) ;
#274 = ORIENTED_EDGE ( 'NONE', *, *, #22, .F. ) ;
#275 = LOCAL_TIME ( 15, 10, 36.00000000000000000, #201 ) ;
#276 = DIRECTION ( 'NONE',  ( 1.000000000000000000, 0.000000000000000000, 0.000000000000000000 ) ) ;
#277 = ORIENTED_EDGE ( 'NONE', *, *, #261, .T. ) ;
#278 = CARTESIAN_POINT ( 'NONE',  ( -41.00000000000000000, -5.021051876504148963E-15, 0.000000000000000000 ) ) ;
#279 = ORIENTED_EDGE ( 'NONE', *, *, #302, .T. ) ;
#280 = VERTEX_POINT ( 'NONE', #331 ) ;
#281 = EDGE_CURVE ( 'NONE', #360, #381, #376, .T. ) ;
#282 = APPLICATION_CONTEXT ( 'configuration controlled 3d designs of mechanical parts and assemblies' ) ;
#283 = ORIENTED_EDGE ( 'NONE', *, *, #156, .F. ) ;
#284 = CYLINDRICAL_SURFACE ( 'NONE', #62, 12.50000000000000000 ) ;
#285 = AXIS2_PLACEMENT_3D ( 'NONE', #405, #64, #146 ) ;
#286 = DIRECTION ( 'NONE',  ( -1.000000000000000000, -6.972200594645950415E-15, 0.000000000000000000 ) ) ;
#287 = CIRCLE ( 'NONE', #191, 489.8000000000000114 ) ;
#288 = SECURITY_CLASSIFICATION ( '', '', #197 ) ;
#289 = CC_DESIGN_PERSON_AND_ORGANIZATION_ASSIGNMENT ( #325, #50, ( #349 ) ) ;
#290 = MECHANICAL_CONTEXT ( 'NONE', #282, 'mechanical' ) ;
#291 = APPROVAL_DATE_TIME ( #230, #63 ) ;
#292 = SPHERICAL_SURFACE ( 'NONE', #240, 39.00000000000000000 ) ;
#293 = APPROVAL_ROLE ( '' ) ;
#294 = CLOSED_SHELL ( 'NONE', ( #223, #116, #205, #318, #202, #166 ) ) ;
#295 = CARTESIAN_POINT ( 'NONE',  ( -4.057477075868280103, -1.018640144283050053E-14, 0.000000000000000000 ) ) ;
#296 = COORDINATED_UNIVERSAL_TIME_OFFSET ( 8, 0, .AHEAD. ) ;
#297 = CC_DESIGN_APPROVAL ( #106, ( #349 ) ) ;
#298 = DIRECTION ( 'NONE',  ( -0.9999823372162217616, 0.005943505327894047820, 0.000000000000000000 ) ) ;
#299 = DIRECTION ( 'NONE',  ( -0.005943505327860299642, -0.9999823372162218726, 3.639283106733587178E-19 ) ) ;
#300 = ADVANCED_FACE ( 'NONE', ( #227 ), #176, .F. ) ;
#301 = DIRECTION ( 'NONE',  ( -1.000000000000000000, -6.961130997970640521E-15, 0.000000000000000000 ) ) ;
#302 = EDGE_CURVE ( 'NONE', #310, #395, #19, .T. ) ;
#303 = DIRECTION ( 'NONE',  ( -1.124866465893159806E-05, -0.9999999999367338299, -6.166743663134125282E-22 ) ) ;
#304 = PERSON ( 'Î´Ö¸¶¨', 'Î´Ö¸¶¨', 'Î´Ö¸¶¨', ('Î´Ö¸¶¨'), ('Î´Ö¸¶¨'), ('Î´Ö¸¶¨') ) ;
#305 = EDGE_LOOP ( 'NONE', ( #149, #406, #283 ) ) ;
#306 = DIRECTION ( 'NONE',  ( 2.515349040166370287E-15, -1.000000000000000000, 0.000000000000000000 ) ) ;
#307 = VERTEX_POINT ( 'NONE', #364 ) ;
#308 = CIRCLE ( 'NONE', #359, 12.50000000000000000 ) ;
#309 = CYLINDRICAL_SURFACE ( 'NONE', #41, 12.50000000000000000 ) ;
#310 = VERTEX_POINT ( 'NONE', #54 ) ;
#311 = PRODUCT_RELATED_PRODUCT_CATEGORY ( 'detail', '', ( #130 ) ) ;
#312 = ORIENTED_EDGE ( 'NONE', *, *, #11, .F. ) ;
#313 = VERTEX_POINT ( 'NONE', #178 ) ;
#314 = CARTESIAN_POINT ( 'NONE',  ( 2.046399905258088125, 0.2208265205246202345, -12.49804927369987873 ) ) ;
#315 = CIRCLE ( 'NONE', #215, 12.50000000000000000 ) ;
#316 = CC_DESIGN_SECURITY_CLASSIFICATION ( #288, ( #349 ) ) ;
#317 = DIRECTION ( 'NONE',  ( -1.000000000000000000, -6.961130997970640521E-15, 0.000000000000000000 ) ) ;
#318 = ADVANCED_FACE ( 'NONE', ( #387 ), #107, .T. ) ;
#319 = AXIS2_PLACEMENT_3D ( 'NONE', #152, #286, #382 ) ;
#320 = DIRECTION ( 'NONE',  ( 1.124866465893159806E-05, 0.9999999999367338299, 6.166743663134123401E-22 ) ) ;
#321 = ADVANCED_FACE ( 'NONE', ( #193 ), #162, .F. ) ;
#322 = DIRECTION ( 'NONE',  ( -1.000000000000000000, -6.972200594645950415E-15, 0.000000000000000000 ) ) ;
#323 = APPROVAL_ROLE ( '' ) ;
#324 = SPHERICAL_SURFACE ( 'NONE', #1, 489.8000000000000114 ) ;
#325 = PERSON_AND_ORGANIZATION ( #304, #220 ) ;
#326 = CC_DESIGN_APPROVAL ( #63, ( #32 ) ) ;
#327 = CARTESIAN_POINT ( 'NONE',  ( -4.057477075868249017, -12.50000000000001243, 0.000000000000000000 ) ) ;
#328 = DATE_AND_TIME ( #12, #216 ) ;
#329 = ORIENTED_EDGE ( 'NONE', *, *, #378, .T. ) ;
#330 = CARTESIAN_POINT ( 'NONE',  ( 6.459529858897193222, 0.005507801452391204895, 12.49999878656228525 ) ) ;
#331 = CARTESIAN_POINT ( 'NONE',  ( 2.046399905258118324, 12.50000000000000533, 1.530808498934192507E-15 ) ) ;
#332 = EDGE_CURVE ( 'NONE', #269, #185, #257, .T. ) ;
#333 = VERTEX_POINT ( 'NONE', #314 ) ;
#334 = DIRECTION ( 'NONE',  ( -1.000000000000000000, -6.961130997970640521E-15, 0.000000000000000000 ) ) ;
#335 = CIRCLE ( 'NONE', #65, 39.20000000000000284 ) ;
#336 = ORIENTED_EDGE ( 'NONE', *, *, #345, .F. ) ;
#337 = CARTESIAN_POINT ( 'NONE',  ( -1.005538585305060018, -2.524430700321660158E-15, 0.000000000000000000 ) ) ;
#338 = ORIENTED_EDGE ( 'NONE', *, *, #87, .T. ) ;
#339 = CARTESIAN_POINT ( 'NONE',  ( -1.005538585305028709, -12.50000000000000178, 0.000000000000000000 ) ) ;
#340 = ORIENTED_EDGE ( 'NONE', *, *, #190, .F. ) ;
#341 = AXIS2_PLACEMENT_3D ( 'NONE', #38, #221, #70 ) ;
#342 = SPHERICAL_SURFACE ( 'NONE', #4, 39.00000000000000000 ) ;
#343 = ORIENTED_EDGE ( 'NONE', *, *, #117, .T. ) ;
#344 = DIRECTION ( 'NONE',  ( 0.005943505327894047820, 0.9999823372162216506, -3.639283106754495555E-19 ) ) ;
#345 = EDGE_CURVE ( 'NONE', #310, #269, #80, .T. ) ;
#346 = ORIENTED_EDGE ( 'NONE', *, *, #397, .F. ) ;
#347 = CARTESIAN_POINT ( 'NONE',  ( -4.057477075868280103, -1.018640144283050053E-14, 0.000000000000000000 ) ) ;
#348 = CARTESIAN_POINT ( 'NONE',  ( -4.057477075868280103, -1.018640144283050053E-14, 0.000000000000000000 ) ) ;
#349 = PRODUCT_DEFINITION_FORMATION_WITH_SPECIFIED_SOURCE ( 'ÈÎºÎ', '', #130, .NOT_KNOWN. ) ;
#350 = DIRECTION ( 'NONE',  ( -0.005943505327860299642, -0.9999823372162218726, 3.639283106733587178E-19 ) ) ;
#351 = DIRECTION ( 'NONE',  ( 0.000000000000000000, 0.000000000000000000, 1.000000000000000000 ) ) ;
#352 = EDGE_CURVE ( 'NONE', #26, #217, #177, .T. ) ;
#353 = AXIS2_PLACEMENT_3D ( 'NONE', #295, #86, #229 ) ;
#354 = PERSON_AND_ORGANIZATION ( #304, #220 ) ;
#355 = CARTESIAN_POINT ( 'NONE',  ( 39.19999999999999574, -7.609608115265370201E-15, 0.000000000000000000 ) ) ;
#356 = COORDINATED_UNIVERSAL_TIME_OFFSET ( 8, 0, .AHEAD. ) ;
#357 = DIRECTION ( 'NONE',  ( -1.124866465893159806E-05, -0.9999999999367338299, -6.166743663134125282E-22 ) ) ;
#358 = DATE_AND_TIME ( #16, #5 ) ;
#359 = AXIS2_PLACEMENT_3D ( 'NONE', #84, #362, #109 ) ;
#360 = VERTEX_POINT ( 'NONE', #36 ) ;
#361 = VECTOR ( 'NONE', #218, 1000.000000000000000 ) ;
#362 = DIRECTION ( 'NONE',  ( -1.000000000000000000, -2.510525938252070143E-15, 0.000000000000000000 ) ) ;
#363 = CC_DESIGN_PERSON_AND_ORGANIZATION_ASSIGNMENT ( #228, #76, ( #32 ) ) ;
#364 = CARTESIAN_POINT ( 'NONE',  ( -4.057477075868311189, 12.49999999999999112, 1.530808498934191521E-15 ) ) ;
#365 = CARTESIAN_POINT ( 'NONE',  ( -4.057477075868280991, -5.021051876504148963E-15, -12.50000000000004619 ) ) ;
#366 = ORIENTED_EDGE ( 'NONE', *, *, #133, .T. ) ;
#367 = CIRCLE ( 'NONE', #39, 12.50000000000000000 ) ;
#368 = CARTESIAN_POINT ( 'NONE',  ( 2.046399905258149854, 5.137540042187159704E-15, 0.000000000000000000 ) ) ;
#369 = ORIENTED_EDGE ( 'NONE', *, *, #159, .T. ) ;
#370 = AXIS2_PLACEMENT_3D ( 'NONE', #27, #403, #273 ) ;
#371 = DIRECTION ( 'NONE',  ( 0.000000000000000000, 0.000000000000000000, 1.000000000000000000 ) ) ;
#372 = CC_DESIGN_PERSON_AND_ORGANIZATION_ASSIGNMENT ( #390, #82, ( #288 ) ) ;
#373 = EDGE_LOOP ( 'NONE', ( #214, #211, #338, #231, #340, #246 ) ) ;
#374 = FACE_OUTER_BOUND ( 'NONE', #99, .T. ) ;
#375 = ORIENTED_EDGE ( 'NONE', *, *, #11, .T. ) ;
#376 = CIRCLE ( 'NONE', #184, 39.20000000000000284 ) ;
#377 = ORIENTED_EDGE ( 'NONE', *, *, #236, .T. ) ;
#378 = EDGE_CURVE ( 'NONE', #307, #26, #14, .T. ) ;
#379 = APPROVAL_PERSON_ORGANIZATION ( #226, #106, #293 ) ;
#380 = ADVANCED_FACE ( 'NONE', ( #134 ), #284, .T. ) ;
#381 = VERTEX_POINT ( 'NONE', #195 ) ;
#382 = DIRECTION ( 'NONE',  ( 6.938893903907228378E-15, -1.000000000000000000, 0.000000000000000000 ) ) ;
#383 = DIRECTION ( 'NONE',  ( -0.9999999999367338299, 1.124866465893159806E-05, 0.000000000000000000 ) ) ;
#384 = AXIS2_PLACEMENT_3D ( 'NONE', #348, #256, #103 ) ;
#385 = CARTESIAN_POINT ( 'NONE',  ( 39.19999999999999574, -7.609608115265370201E-15, 0.000000000000000000 ) ) ;
#386 = APPROVAL_DATE_TIME ( #358, #106 ) ;
#387 = FACE_OUTER_BOUND ( 'NONE', #392, .T. ) ;
#388 = COORDINATED_UNIVERSAL_TIME_OFFSET ( 8, 0, .AHEAD. ) ;
#389 = DIRECTION ( 'NONE',  ( 0.000000000000000000, 1.000000000000000000, 0.000000000000000000 ) ) ;
#390 = PERSON_AND_ORGANIZATION ( #304, #220 ) ;
#391 = CARTESIAN_POINT ( 'NONE',  ( 4.252964882077639786, 2.960544567391119829E-14, 0.000000000000000000 ) ) ;
#392 = EDGE_LOOP ( 'NONE', ( #312, #157, #377, #279, #89, #346 ) ) ;
#393 = EDGE_CURVE ( 'NONE', #250, #269, #287, .T. ) ;
#394 = AXIS2_PLACEMENT_3D ( 'NONE', #368, #90, #371 ) ;
#395 = VERTEX_POINT ( 'NONE', #40 ) ;
#396 = CARTESIAN_POINT ( 'NONE',  ( 4.252964882077726827, -12.49999999999997158, 0.000000000000000000 ) ) ;
#397 = EDGE_CURVE ( 'NONE', #244, #333, #112, .T. ) ;
#398 = SPHERICAL_SURFACE ( 'NONE', #37, 489.8000000000000114 ) ;
#399 = ORIENTED_EDGE ( 'NONE', *, *, #135, .F. ) ;
#400 = LINE ( 'NONE', #182, #180 ) ;
#401 = AXIS2_PLACEMENT_3D ( 'NONE', #105, #10, #251 ) ;
#402 = APPROVAL ( #199, 'Î´Ö¸¶¨' ) ;
#403 = DIRECTION ( 'NONE',  ( -1.000000000000000000, -2.510525938252070143E-15, 0.000000000000000000 ) ) ;
#404 = ORIENTED_EDGE ( 'NONE', *, *, #22, .T. ) ;
#405 = CARTESIAN_POINT ( 'NONE',  ( -4.057477075868280103, -1.018640144283050053E-14, 0.000000000000000000 ) ) ;
#406 = ORIENTED_EDGE ( 'NONE', *, *, #281, .T. ) ;
#407 = ORIENTED_EDGE ( 'NONE', *, *, #67, .F. ) ;
ENDSEC;
END-ISO-10303-21;
