ISO-10303-21;
HEADER;
FILE_DESCRIPTION (( 'STEP AP214' ),
    '1' );
FILE_NAME ('145207.STEP',
    '2019-06-13T09:01:06',
    ( 'user' ),
    ( 'Î¢ÈíÖÐ¹ú' ),
    'SwSTEP 2.0',
    'SolidWorks 2016',
    '' );
FILE_SCHEMA (( 'AUTOMOTIVE_DESIGN' ));
ENDSEC;

DATA;
#1 = ORIENTED_EDGE ( 'NONE', *, *, #148, .T. ) ;
#2 = DIRECTION ( 'NONE',  ( -1.000000000000000000, -0.0000000000000000000, -0.0000000000000000000 ) ) ;
#3 = EDGE_CURVE ( 'NONE', #9, #150, #242, .T. ) ;
#4 = ORIENTED_EDGE ( 'NONE', *, *, #191, .T. ) ;
#5 = ORIENTED_EDGE ( 'NONE', *, *, #3, .F. ) ;
#6 = CARTESIAN_POINT ( 'NONE',  ( 165.1781574616522600, 0.0000000000000000000, -6.515120971463919000E-015 ) ) ;
#7 =( GEOMETRIC_REPRESENTATION_CONTEXT ( 3 ) GLOBAL_UNCERTAINTY_ASSIGNED_CONTEXT ( ( #309 ) ) GLOBAL_UNIT_ASSIGNED_CONTEXT ( ( #45, #196, #99 ) ) REPRESENTATION_CONTEXT ( 'NONE', 'WORKASPACE' ) );
#8 = CARTESIAN_POINT ( 'NONE',  ( 163.8086033272804200, 0.0000000000000000000, 0.0000000000000000000 ) ) ;
#9 = VERTEX_POINT ( 'NONE', #163 ) ;
#10 = DIRECTION ( 'NONE',  ( 0.0000000000000000000, 0.0000000000000000000, 1.000000000000000000 ) ) ;
#11 =( LENGTH_UNIT ( ) NAMED_UNIT ( * ) SI_UNIT ( .MILLI., .METRE. ) );
#12 = ORIENTED_EDGE ( 'NONE', *, *, #191, .F. ) ;
#13 = CARTESIAN_POINT ( 'NONE',  ( 0.0000000000000000000, 0.0000000000000000000, 0.0000000000000000000 ) ) ;
#14 = DIRECTION ( 'NONE',  ( 0.0000000000000000000, 0.0000000000000000000, -1.000000000000000000 ) ) ;
#15 = CIRCLE ( 'NONE', #326, 18.39999999999998400 ) ;
#16 = DIRECTION ( 'NONE',  ( 0.0000000000000000000, 0.0000000000000000000, 1.000000000000000000 ) ) ;
#17 = PRESENTATION_LAYER_ASSIGNMENT (  '', '', ( #104 ) ) ;
#18 = DIRECTION ( 'NONE',  ( 0.0000000000000000000, 0.0000000000000000000, 1.000000000000000000 ) ) ;
#19 = CARTESIAN_POINT ( 'NONE',  ( 181.0781574616522700, 0.0000000000000000000, -6.053013926206084400E-014 ) ) ;
#20 = ORIENTED_EDGE ( 'NONE', *, *, #146, .T. ) ;
#21 = SPHERICAL_SURFACE ( 'NONE', #345, 18.39999999999998400 ) ;
#22 = CARTESIAN_POINT ( 'NONE',  ( 141.8781574616522500, 0.0000000000000000000, -6.053013926205872400E-014 ) ) ;
#23 = SURFACE_STYLE_FILL_AREA ( #49 ) ;
#24 = DIRECTION ( 'NONE',  ( -1.000000000000000000, -0.0000000000000000000, -0.0000000000000000000 ) ) ;
#25 = FACE_OUTER_BOUND ( 'NONE', #237, .T. ) ;
#26 = CIRCLE ( 'NONE', #173, 6.349999999999934800 ) ;
#27 = EDGE_CURVE ( 'NONE', #199, #330, #279, .T. ) ;
#28 = ORIENTED_EDGE ( 'NONE', *, *, #3, .T. ) ;
#29 = CIRCLE ( 'NONE', #266, 6.349999999999940100 ) ;
#30 = LINE ( 'NONE', #216, #64 ) ;
#31 = CARTESIAN_POINT ( 'NONE',  ( 165.3678119203632900, 0.0000000000000000000, 0.0000000000000000000 ) ) ;
#32 = EDGE_CURVE ( 'NONE', #197, #77, #130, .T. ) ;
#33 = CIRCLE ( 'NONE', #233, 6.349999999999992500 ) ;
#34 = AXIS2_PLACEMENT_3D ( 'NONE', #128, #141, #80 ) ;
#35 = CARTESIAN_POINT ( 'NONE',  ( 271.5781574616522700, 0.0000000000000000000, 0.0000000000000000000 ) ) ;
#36 = EDGE_CURVE ( 'NONE', #215, #150, #120, .T. ) ;
#37 = CLOSED_SHELL ( 'NONE', ( #113, #280, #177, #198, #143, #98 ) ) ;
#38 = ORIENTED_EDGE ( 'NONE', *, *, #106, .T. ) ;
#39 = LINE ( 'NONE', #295, #160 ) ;
#40 = CIRCLE ( 'NONE', #153, 106.3999999999999900 ) ;
#41 = CARTESIAN_POINT ( 'NONE',  ( 163.8086033272804200, 0.0000000000000000000, -5.455314076318360400E-014 ) ) ;
#42 = ORIENTED_EDGE ( 'NONE', *, *, #62, .F. ) ;
#43 = STYLED_ITEM ( 'NONE', ( #288 ), #155 ) ;
#44 =( NAMED_UNIT ( * ) PLANE_ANGLE_UNIT ( ) SI_UNIT ( $, .RADIAN. ) );
#45 =( LENGTH_UNIT ( ) NAMED_UNIT ( * ) SI_UNIT ( .MILLI., .METRE. ) );
#46 = EDGE_CURVE ( 'NONE', #9, #215, #26, .T. ) ;
#47 = DIRECTION ( 'NONE',  ( -1.000000000000000000, -0.0000000000000000000, -0.0000000000000000000 ) ) ;
#48 = DIRECTION ( 'NONE',  ( -0.0000000000000000000, -1.000000000000000000, -0.0000000000000000000 ) ) ;
#49 = FILL_AREA_STYLE ('',( #251 ) ) ;
#50 = ORIENTED_EDGE ( 'NONE', *, *, #306, .T. ) ;
#51 = VECTOR ( 'NONE', #310, 1000.000000000000000 ) ;
#52 = DIRECTION ( 'NONE',  ( 0.0000000000000000000, 1.000000000000000000, 0.0000000000000000000 ) ) ;
#53 = DIRECTION ( 'NONE',  ( -0.0000000000000000000, 1.000000000000000000, 0.0000000000000000000 ) ) ;
#54 = DIRECTION ( 'NONE',  ( 0.0000000000000000000, 0.0000000000000000000, 1.000000000000000000 ) ) ;
#55 = DIRECTION ( 'NONE',  ( 0.0000000000000000000, 0.0000000000000000000, 1.000000000000000000 ) ) ;
#56 = AXIS2_PLACEMENT_3D ( 'NONE', #268, #223, #169 ) ;
#57 = DIRECTION ( 'NONE',  ( 0.0000000000000000000, 0.0000000000000000000, 1.000000000000000000 ) ) ;
#58 = EDGE_LOOP ( 'NONE', ( #107, #205, #42 ) ) ;
#59 = SPHERICAL_SURFACE ( 'NONE', #86, 18.39999999999998400 ) ;
#60 = AXIS2_PLACEMENT_3D ( 'NONE', #337, #238, #14 ) ;
#61 = EDGE_LOOP ( 'NONE', ( #248, #4, #297, #336 ) ) ;
#62 = EDGE_CURVE ( 'NONE', #287, #322, #40, .T. ) ;
#63 = ORIENTED_EDGE ( 'NONE', *, *, #146, .F. ) ;
#64 = VECTOR ( 'NONE', #217, 1000.000000000000000 ) ;
#65 = PRESENTATION_LAYER_ASSIGNMENT (  '', '', ( #43 ) ) ;
#66 =( LENGTH_UNIT ( ) NAMED_UNIT ( * ) SI_UNIT ( .MILLI., .METRE. ) );
#67 = SHAPE_DEFINITION_REPRESENTATION ( #275, #342 ) ;
#68 = ORIENTED_EDGE ( 'NONE', *, *, #36, .F. ) ;
#69 = ORIENTED_EDGE ( 'NONE', *, *, #32, .T. ) ;
#70 = DIRECTION ( 'NONE',  ( 0.0000000000000000000, 0.0000000000000000000, 1.000000000000000000 ) ) ;
#71 = DIRECTION ( 'NONE',  ( 0.0000000000000000000, 0.0000000000000000000, 1.000000000000000000 ) ) ;
#72 = AXIS2_PLACEMENT_3D ( 'NONE', #290, #162, #202 ) ;
#73 = CARTESIAN_POINT ( 'NONE',  ( 165.3678119203632900, 0.0000000000000000000, 6.349999999999940100 ) ) ;
#74 = EDGE_LOOP ( 'NONE', ( #63, #124, #138 ) ) ;
#75 = DIRECTION ( 'NONE',  ( -1.000000000000000000, -0.0000000000000000000, 2.150590265972864100E-016 ) ) ;
#76 = DIRECTION ( 'NONE',  ( 0.0000000000000000000, 0.0000000000000000000, 1.000000000000000000 ) ) ;
#77 = VERTEX_POINT ( 'NONE', #344 ) ;
#78 = ORIENTED_EDGE ( 'NONE', *, *, #277, .T. ) ;
#79 = CARTESIAN_POINT ( 'NONE',  ( 160.1036204187350900, 0.0000000000000000000, 0.0000000000000000000 ) ) ;
#80 = DIRECTION ( 'NONE',  ( 0.0000000000000000000, 0.0000000000000000000, -1.000000000000000000 ) ) ;
#81 = PRODUCT_DEFINITION_CONTEXT ( 'detailed design', #125, 'design' ) ;
#82 = EDGE_CURVE ( 'NONE', #199, #204, #119, .T. ) ;
#83 = ORIENTED_EDGE ( 'NONE', *, *, #148, .F. ) ;
#84 = CIRCLE ( 'NONE', #272, 6.349999999999993400 ) ;
#85 = ADVANCED_FACE ( 'NONE', ( #305 ), #89, .T. ) ;
#86 = AXIS2_PLACEMENT_3D ( 'NONE', #214, #224, #10 ) ;
#87 = SURFACE_SIDE_STYLE ('',( #318 ) ) ;
#88 = EDGE_LOOP ( 'NONE', ( #343, #232, #108, #186 ) ) ;
#89 = SPHERICAL_SURFACE ( 'NONE', #243, 18.39999999999998400 ) ;
#90 = ORIENTED_EDGE ( 'NONE', *, *, #27, .F. ) ;
#91 = DIRECTION ( 'NONE',  ( -1.000000000000000000, -0.0000000000000000000, 2.150590265972864100E-016 ) ) ;
#92 = AXIS2_PLACEMENT_3D ( 'NONE', #230, #231, #18 ) ;
#93 = MECHANICAL_DESIGN_GEOMETRIC_PRESENTATION_REPRESENTATION (  '', ( #104 ), #315 ) ;
#94 = EDGE_LOOP ( 'NONE', ( #50, #38, #156, #316 ) ) ;
#95 = CARTESIAN_POINT ( 'NONE',  ( 163.8086033272804200, 0.0000000000000000000, 0.0000000000000000000 ) ) ;
#96 = ORIENTED_EDGE ( 'NONE', *, *, #165, .F. ) ;
#97 = CYLINDRICAL_SURFACE ( 'NONE', #281, 6.349999999999992500 ) ;
#98 = ADVANCED_FACE ( 'NONE', ( #258 ), #274, .F. ) ;
#99 =( NAMED_UNIT ( * ) SI_UNIT ( $, .STERADIAN. ) SOLID_ANGLE_UNIT ( ) );
#100 = UNCERTAINTY_MEASURE_WITH_UNIT (LENGTH_MEASURE( 1.000000000000000100E-005 ), #182, 'distance_accuracy_value', 'NONE');
#101 = DIRECTION ( 'NONE',  ( -1.000000000000000000, -0.0000000000000000000, -0.0000000000000000000 ) ) ;
#102 = DIRECTION ( 'NONE',  ( 0.0000000000000000000, 0.0000000000000000000, 1.000000000000000000 ) ) ;
#103 = APPLICATION_CONTEXT ( 'automotive_design' ) ;
#104 = STYLED_ITEM ( 'NONE', ( #313 ), #227 ) ;
#105 = DIRECTION ( 'NONE',  ( 0.0000000000000000000, 0.0000000000000000000, 1.000000000000000000 ) ) ;
#106 = EDGE_CURVE ( 'NONE', #287, #215, #194, .T. ) ;
#107 = ORIENTED_EDGE ( 'NONE', *, *, #306, .F. ) ;
#108 = ORIENTED_EDGE ( 'NONE', *, *, #27, .T. ) ;
#109 = CIRCLE ( 'NONE', #60, 18.39999999999998400 ) ;
#110 = ADVANCED_FACE ( 'NONE', ( #259 ), #114, .T. ) ;
#111 = EDGE_LOOP ( 'NONE', ( #347, #12, #174 ) ) ;
#112 = CARTESIAN_POINT ( 'NONE',  ( 181.0781574616522700, 0.0000000000000000000, -6.053013926206084400E-014 ) ) ;
#113 = ADVANCED_FACE ( 'NONE', ( #25 ), #59, .F. ) ;
#114 = CYLINDRICAL_SURFACE ( 'NONE', #256, 6.349999999999937500 ) ;
#115 = PRESENTATION_LAYER_ASSIGNMENT (  '', '', ( #267 ) ) ;
#116 = PRODUCT_DEFINITION_FORMATION_WITH_SPECIFIED_SOURCE ( 'ÈÎºÎ', '', #300, .NOT_KNOWN. ) ;
#117 = CARTESIAN_POINT ( 'NONE',  ( 165.3678119203632900, 7.776507174585620200E-016, -6.349999999999940100 ) ) ;
#118 = VERTEX_POINT ( 'NONE', #271 ) ;
#119 = CIRCLE ( 'NONE', #133, 6.349999999999993400 ) ;
#120 = CIRCLE ( 'NONE', #72, 18.39999999999998400 ) ;
#121 =( NAMED_UNIT ( * ) PLANE_ANGLE_UNIT ( ) SI_UNIT ( $, .RADIAN. ) );
#122 = EDGE_CURVE ( 'NONE', #298, #322, #135, .T. ) ;
#123 =( NAMED_UNIT ( * ) SI_UNIT ( $, .STERADIAN. ) SOLID_ANGLE_UNIT ( ) );
#124 = ORIENTED_EDGE ( 'NONE', *, *, #82, .F. ) ;
#125 = APPLICATION_CONTEXT ( 'automotive_design' ) ;
#126 = CIRCLE ( 'NONE', #252, 6.349999999999940100 ) ;
#127 = CARTESIAN_POINT ( 'NONE',  ( -185.2744740506581700, 0.0000000000000000000, 2.052032605930108700E-014 ) ) ;
#128 = CARTESIAN_POINT ( 'NONE',  ( 141.8781574616522500, 0.0000000000000000000, -6.053013926205872400E-014 ) ) ;
#129 = EDGE_LOOP ( 'NONE', ( #229, #193, #159, #90 ) ) ;
#130 = CIRCLE ( 'NONE', #203, 19.30000000000000800 ) ;
#131 = DIRECTION ( 'NONE',  ( 0.0000000000000000000, 1.000000000000000000, -0.0000000000000000000 ) ) ;
#132 = DIRECTION ( 'NONE',  ( 0.0000000000000000000, 0.0000000000000000000, -1.000000000000000000 ) ) ;
#133 = AXIS2_PLACEMENT_3D ( 'NONE', #226, #75, #70 ) ;
#134 = EDGE_LOOP ( 'NONE', ( #68, #147, #28 ) ) ;
#135 = CIRCLE ( 'NONE', #56, 106.3999999999999900 ) ;
#136 = CARTESIAN_POINT ( 'NONE',  ( 141.8781574616522500, 0.0000000000000000000, -6.053013926205872400E-014 ) ) ;
#137 = CARTESIAN_POINT ( 'NONE',  ( 271.5781574616522700, 0.0000000000000000000, 0.0000000000000000000 ) ) ;
#138 = ORIENTED_EDGE ( 'NONE', *, *, #165, .T. ) ;
#139 = SPHERICAL_SURFACE ( 'NONE', #340, 106.3999999999999900 ) ;
#140 = DIRECTION ( 'NONE',  ( 0.0000000000000000000, 0.0000000000000000000, 1.000000000000000000 ) ) ;
#141 = DIRECTION ( 'NONE',  ( 0.0000000000000000000, -1.000000000000000000, 0.0000000000000000000 ) ) ;
#142 = UNCERTAINTY_MEASURE_WITH_UNIT (LENGTH_MEASURE( 1.000000000000000100E-005 ), #66, 'distance_accuracy_value', 'NONE');
#143 = ADVANCED_FACE ( 'NONE', ( #327 ), #276, .T. ) ;
#144 = MECHANICAL_DESIGN_GEOMETRIC_PRESENTATION_REPRESENTATION (  '', ( #267 ), #154 ) ;
#145 = DIRECTION ( 'NONE',  ( -1.000000000000000000, -0.0000000000000000000, 2.150590265972864100E-016 ) ) ;
#146 = EDGE_CURVE ( 'NONE', #204, #118, #15, .T. ) ;
#147 = ORIENTED_EDGE ( 'NONE', *, *, #164, .T. ) ;
#148 = EDGE_CURVE ( 'NONE', #197, #330, #292, .T. ) ;
#149 = FACE_OUTER_BOUND ( 'NONE', #111, .T. ) ;
#150 = VERTEX_POINT ( 'NONE', #334 ) ;
#151 = ORIENTED_EDGE ( 'NONE', *, *, #221, .T. ) ;
#152 = APPLICATION_PROTOCOL_DEFINITION ( 'draft international standard', 'automotive_design', 1998, #103 ) ;
#153 = AXIS2_PLACEMENT_3D ( 'NONE', #338, #131, #323 ) ;
#154 =( GEOMETRIC_REPRESENTATION_CONTEXT ( 3 ) GLOBAL_UNCERTAINTY_ASSIGNED_CONTEXT ( ( #142 ) ) GLOBAL_UNIT_ASSIGNED_CONTEXT ( ( #66, #121, #123 ) ) REPRESENTATION_CONTEXT ( 'NONE', 'WORKASPACE' ) );
#155 = MANIFOLD_SOLID_BREP ( 'Ðý×ª1', #37 ) ;
#156 = ORIENTED_EDGE ( 'NONE', *, *, #46, .F. ) ;
#157 = CARTESIAN_POINT ( 'NONE',  ( 163.8086033272804200, 7.776507174585614300E-016, -6.349999999999997000 ) ) ;
#158 = CARTESIAN_POINT ( 'NONE',  ( 165.3678119203632900, 0.0000000000000000000, 0.0000000000000000000 ) ) ;
#159 = ORIENTED_EDGE ( 'NONE', *, *, #221, .F. ) ;
#160 = VECTOR ( 'NONE', #2, 1000.000000000000000 ) ;
#161 = EDGE_CURVE ( 'NONE', #204, #199, #84, .T. ) ;
#162 = DIRECTION ( 'NONE',  ( -0.0000000000000000000, 1.000000000000000000, 1.224646799147353200E-016 ) ) ;
#163 = CARTESIAN_POINT ( 'NONE',  ( 163.8086033272804200, 0.0000000000000000000, 6.349999999999936600 ) ) ;
#164 = EDGE_CURVE ( 'NONE', #215, #9, #255, .T. ) ;
#165 = EDGE_CURVE ( 'NONE', #199, #118, #109, .T. ) ;
#166 = FILL_AREA_STYLE_COLOUR ( '', #189 ) ;
#167 = VECTOR ( 'NONE', #24, 1000.000000000000000 ) ;
#168 = DIRECTION ( 'NONE',  ( -1.000000000000000000, -0.0000000000000000000, -0.0000000000000000000 ) ) ;
#169 = DIRECTION ( 'NONE',  ( 0.0000000000000000000, 1.224646799147353200E-016, -1.000000000000000000 ) ) ;
#170 = ADVANCED_FACE ( 'NONE', ( #208 ), #222, .F. ) ;
#171 = SURFACE_STYLE_FILL_AREA ( #240 ) ;
#172 = CARTESIAN_POINT ( 'NONE',  ( 181.0781574616522700, 0.0000000000000000000, -6.053013926206084400E-014 ) ) ;
#173 = AXIS2_PLACEMENT_3D ( 'NONE', #95, #101, #57 ) ;
#174 = ORIENTED_EDGE ( 'NONE', *, *, #62, .T. ) ;
#175 = FACE_OUTER_BOUND ( 'NONE', #134, .T. ) ;
#176 = SURFACE_SIDE_STYLE ('',( #23 ) ) ;
#177 = ADVANCED_FACE ( 'NONE', ( #261 ), #235, .F. ) ;
#178 = CIRCLE ( 'NONE', #291, 6.349999999999992500 ) ;
#179 = AXIS2_PLACEMENT_3D ( 'NONE', #137, #48, #183 ) ;
#180 = AXIS2_PLACEMENT_3D ( 'NONE', #19, #294, #132 ) ;
#181 = FACE_OUTER_BOUND ( 'NONE', #245, .T. ) ;
#182 =( LENGTH_UNIT ( ) NAMED_UNIT ( * ) SI_UNIT ( .MILLI., .METRE. ) );
#183 = DIRECTION ( 'NONE',  ( 0.0000000000000000000, 0.0000000000000000000, -1.000000000000000000 ) ) ;
#184 = DIRECTION ( 'NONE',  ( 0.0000000000000000000, -1.224646799147353200E-016, 1.000000000000000000 ) ) ;
#185 = CLOSED_SHELL ( 'NONE', ( #170, #332, #85, #320, #110, #324 ) ) ;
#186 = ORIENTED_EDGE ( 'NONE', *, *, #277, .F. ) ;
#187 = ORIENTED_EDGE ( 'NONE', *, *, #46, .T. ) ;
#188 = DIRECTION ( 'NONE',  ( 0.0000000000000000000, 0.0000000000000000000, 1.000000000000000000 ) ) ;
#189 = COLOUR_RGB ( '',1.000000000000000000, 1.000000000000000000, 1.000000000000000000 ) ;
#190 = DIRECTION ( 'NONE',  ( 0.0000000000000000000, 0.0000000000000000000, 1.000000000000000000 ) ) ;
#191 = EDGE_CURVE ( 'NONE', #287, #298, #126, .T. ) ;
#192 = MECHANICAL_DESIGN_GEOMETRIC_PRESENTATION_REPRESENTATION (  '', ( #43 ), #7 ) ;
#193 = ORIENTED_EDGE ( 'NONE', *, *, #211, .T. ) ;
#194 = LINE ( 'NONE', #241, #167 ) ;
#195 = CARTESIAN_POINT ( 'NONE',  ( 163.8086033272804200, 7.776507174585686200E-016, -6.350000000000048500 ) ) ;
#196 =( NAMED_UNIT ( * ) PLANE_ANGLE_UNIT ( ) SI_UNIT ( $, .RADIAN. ) );
#197 = VERTEX_POINT ( 'NONE', #228 ) ;
#198 = ADVANCED_FACE ( 'NONE', ( #181 ), #328, .F. ) ;
#199 = VERTEX_POINT ( 'NONE', #284 ) ;
#200 = PRESENTATION_STYLE_ASSIGNMENT (( #346 ) ) ;
#201 = PRODUCT_CONTEXT ( 'NONE', #103, 'mechanical' ) ;
#202 = DIRECTION ( 'NONE',  ( 0.0000000000000000000, -1.224646799147353200E-016, 1.000000000000000000 ) ) ;
#203 = AXIS2_PLACEMENT_3D ( 'NONE', #136, #263, #244 ) ;
#204 = VERTEX_POINT ( 'NONE', #195 ) ;
#205 = ORIENTED_EDGE ( 'NONE', *, *, #122, .T. ) ;
#206 = AXIS2_PLACEMENT_3D ( 'NONE', #239, #265, #218 ) ;
#207 = SURFACE_STYLE_USAGE ( .BOTH. , #87 ) ;
#208 = FACE_OUTER_BOUND ( 'NONE', #58, .T. ) ;
#209 = UNCERTAINTY_MEASURE_WITH_UNIT (LENGTH_MEASURE( 1.000000000000000100E-005 ), #11, 'distance_accuracy_value', 'NONE');
#210 =( NAMED_UNIT ( * ) SI_UNIT ( $, .STERADIAN. ) SOLID_ANGLE_UNIT ( ) );
#211 = EDGE_CURVE ( 'NONE', #204, #77, #30, .T. ) ;
#212 = CARTESIAN_POINT ( 'NONE',  ( 160.1036204187350900, 0.0000000000000000000, -5.375635074531225900E-014 ) ) ;
#213 = DIRECTION ( 'NONE',  ( -1.000000000000000000, -0.0000000000000000000, -0.0000000000000000000 ) ) ;
#214 = CARTESIAN_POINT ( 'NONE',  ( 181.0781574616522700, 0.0000000000000000000, -6.053013926206084400E-014 ) ) ;
#215 = VERTEX_POINT ( 'NONE', #157 ) ;
#216 = CARTESIAN_POINT ( 'NONE',  ( -185.2744740506581700, 7.776507174585684300E-016, -6.349999999999972100 ) ) ;
#217 = DIRECTION ( 'NONE',  ( -1.000000000000000000, -0.0000000000000000000, 2.150590265972864100E-016 ) ) ;
#218 = DIRECTION ( 'NONE',  ( 0.0000000000000000000, 0.0000000000000000000, 1.000000000000000000 ) ) ;
#219 =( NAMED_UNIT ( * ) SI_UNIT ( $, .STERADIAN. ) SOLID_ANGLE_UNIT ( ) );
#220 = EDGE_LOOP ( 'NONE', ( #83, #69, #78 ) ) ;
#221 = EDGE_CURVE ( 'NONE', #330, #77, #178, .T. ) ;
#222 = SPHERICAL_SURFACE ( 'NONE', #179, 106.3999999999999900 ) ;
#223 = DIRECTION ( 'NONE',  ( 0.0000000000000000000, -1.000000000000000000, -1.224646799147353200E-016 ) ) ;
#224 = DIRECTION ( 'NONE',  ( -0.0000000000000000000, 1.000000000000000000, 0.0000000000000000000 ) ) ;
#225 = AXIS2_PLACEMENT_3D ( 'NONE', #8, #168, #76 ) ;
#226 = CARTESIAN_POINT ( 'NONE',  ( 163.8086033272804200, 0.0000000000000000000, -5.455314076318360400E-014 ) ) ;
#227 = MANIFOLD_SOLID_BREP ( 'Ðý×ª3', #185 ) ;
#228 = CARTESIAN_POINT ( 'NONE',  ( 161.1781574616522600, 0.0000000000000000000, -6.349899431420916700E-014 ) ) ;
#229 = ORIENTED_EDGE ( 'NONE', *, *, #82, .T. ) ;
#230 = CARTESIAN_POINT ( 'NONE',  ( -185.2744740506581700, 0.0000000000000000000, 2.052032605930108700E-014 ) ) ;
#231 = DIRECTION ( 'NONE',  ( -1.000000000000000000, -0.0000000000000000000, 2.150590265972864100E-016 ) ) ;
#232 = ORIENTED_EDGE ( 'NONE', *, *, #161, .T. ) ;
#233 = AXIS2_PLACEMENT_3D ( 'NONE', #301, #321, #16 ) ;
#234 = EDGE_LOOP ( 'NONE', ( #187, #302, #5 ) ) ;
#235 = SPHERICAL_SURFACE ( 'NONE', #254, 19.30000000000000800 ) ;
#236 = DIRECTION ( 'NONE',  ( -0.0000000000000000000, -1.000000000000000000, -0.0000000000000000000 ) ) ;
#237 = EDGE_LOOP ( 'NONE', ( #253, #20, #96 ) ) ;
#238 = DIRECTION ( 'NONE',  ( 0.0000000000000000000, -1.000000000000000000, 0.0000000000000000000 ) ) ;
#239 = CARTESIAN_POINT ( 'NONE',  ( 141.8781574616522500, 0.0000000000000000000, -6.053013926205872400E-014 ) ) ;
#240 = FILL_AREA_STYLE ('',( #166 ) ) ;
#241 = CARTESIAN_POINT ( 'NONE',  ( 160.1036204187350900, 7.776507174585616200E-016, -6.349999999999937500 ) ) ;
#242 = CIRCLE ( 'NONE', #180, 18.39999999999998400 ) ;
#243 = AXIS2_PLACEMENT_3D ( 'NONE', #249, #317, #102 ) ;
#244 = DIRECTION ( 'NONE',  ( 0.0000000000000000000, -1.224646799147353200E-016, 1.000000000000000000 ) ) ;
#245 = EDGE_LOOP ( 'NONE', ( #273, #1, #151 ) ) ;
#246 = COLOUR_RGB ( '',1.000000000000000000, 1.000000000000000000, 1.000000000000000000 ) ;
#247 = DIRECTION ( 'NONE',  ( -1.000000000000000000, -0.0000000000000000000, 2.150590265972864100E-016 ) ) ;
#248 = ORIENTED_EDGE ( 'NONE', *, *, #106, .F. ) ;
#249 = CARTESIAN_POINT ( 'NONE',  ( 181.0781574616522700, 0.0000000000000000000, -6.053013926206084400E-014 ) ) ;
#250 = DIRECTION ( 'NONE',  ( 0.0000000000000000000, 0.0000000000000000000, 1.000000000000000000 ) ) ;
#251 = FILL_AREA_STYLE_COLOUR ( '', #314 ) ;
#252 = AXIS2_PLACEMENT_3D ( 'NONE', #158, #47, #105 ) ;
#253 = ORIENTED_EDGE ( 'NONE', *, *, #161, .F. ) ;
#254 = AXIS2_PLACEMENT_3D ( 'NONE', #22, #53, #190 ) ;
#255 = CIRCLE ( 'NONE', #225, 6.349999999999934800 ) ;
#256 = AXIS2_PLACEMENT_3D ( 'NONE', #296, #319, #71 ) ;
#257 = PRODUCT_RELATED_PRODUCT_CATEGORY ( 'part', '', ( #300 ) ) ;
#258 = FACE_OUTER_BOUND ( 'NONE', #74, .T. ) ;
#259 = FACE_OUTER_BOUND ( 'NONE', #61, .T. ) ;
#260 = DIRECTION ( 'NONE',  ( 0.0000000000000000000, 0.0000000000000000000, 1.000000000000000000 ) ) ;
#261 = FACE_OUTER_BOUND ( 'NONE', #220, .T. ) ;
#262 = FILL_AREA_STYLE_COLOUR ( '', #246 ) ;
#263 = DIRECTION ( 'NONE',  ( 2.633713485501122900E-032, 1.000000000000000000, 1.224646799147353200E-016 ) ) ;
#264 = FILL_AREA_STYLE ('',( #262 ) ) ;
#265 = DIRECTION ( 'NONE',  ( -0.0000000000000000000, 1.000000000000000000, 0.0000000000000000000 ) ) ;
#266 = AXIS2_PLACEMENT_3D ( 'NONE', #31, #283, #304 ) ;
#267 = STYLED_ITEM ( 'NONE', ( #200 ), #342 ) ;
#268 = CARTESIAN_POINT ( 'NONE',  ( 271.5781574616522700, 0.0000000000000000000, 0.0000000000000000000 ) ) ;
#269 = DIRECTION ( 'NONE',  ( -0.0000000000000000000, 1.000000000000000000, 0.0000000000000000000 ) ) ;
#270 = FACE_OUTER_BOUND ( 'NONE', #129, .T. ) ;
#271 = CARTESIAN_POINT ( 'NONE',  ( 162.6781574616522600, 0.0000000000000000000, -5.544637811745521900E-014 ) ) ;
#272 = AXIS2_PLACEMENT_3D ( 'NONE', #41, #247, #188 ) ;
#273 = ORIENTED_EDGE ( 'NONE', *, *, #32, .F. ) ;
#274 = SPHERICAL_SURFACE ( 'NONE', #325, 18.39999999999998400 ) ;
#275 = PRODUCT_DEFINITION_SHAPE ( 'NONE', 'NONE',  #329 ) ;
#276 = CYLINDRICAL_SURFACE ( 'NONE', #92, 6.349999999999992500 ) ;
#277 = EDGE_CURVE ( 'NONE', #77, #330, #33, .T. ) ;
#278 = CARTESIAN_POINT ( 'NONE',  ( 160.1036204187350900, 0.0000000000000000000, 6.349999999999977400 ) ) ;
#279 = LINE ( 'NONE', #312, #51 ) ;
#280 = ADVANCED_FACE ( 'NONE', ( #270 ), #97, .T. ) ;
#281 = AXIS2_PLACEMENT_3D ( 'NONE', #127, #145, #260 ) ;
#282 = DIRECTION ( 'NONE',  ( 0.0000000000000000000, 0.0000000000000000000, 1.000000000000000000 ) ) ;
#283 = DIRECTION ( 'NONE',  ( -1.000000000000000000, -0.0000000000000000000, -0.0000000000000000000 ) ) ;
#284 = CARTESIAN_POINT ( 'NONE',  ( 163.8086033272804200, 0.0000000000000000000, 6.349999999999939200 ) ) ;
#285 = AXIS2_PLACEMENT_3D ( 'NONE', #13, #140, #286 ) ;
#286 = DIRECTION ( 'NONE',  ( 1.000000000000000000, 0.0000000000000000000, 0.0000000000000000000 ) ) ;
#287 = VERTEX_POINT ( 'NONE', #117 ) ;
#288 = PRESENTATION_STYLE_ASSIGNMENT (( #339 ) ) ;
#289 = DIRECTION ( 'NONE',  ( 0.0000000000000000000, 0.0000000000000000000, -1.000000000000000000 ) ) ;
#290 = CARTESIAN_POINT ( 'NONE',  ( 181.0781574616522700, 0.0000000000000000000, -6.053013926206084400E-014 ) ) ;
#291 = AXIS2_PLACEMENT_3D ( 'NONE', #212, #91, #250 ) ;
#292 = CIRCLE ( 'NONE', #34, 19.30000000000000800 ) ;
#293 = AXIS2_PLACEMENT_3D ( 'NONE', #79, #213, #54 ) ;
#294 = DIRECTION ( 'NONE',  ( 0.0000000000000000000, -1.000000000000000000, 0.0000000000000000000 ) ) ;
#295 = CARTESIAN_POINT ( 'NONE',  ( 160.1036204187350900, 0.0000000000000000000, 6.349999999999937500 ) ) ;
#296 = CARTESIAN_POINT ( 'NONE',  ( 160.1036204187350900, 0.0000000000000000000, 0.0000000000000000000 ) ) ;
#297 = ORIENTED_EDGE ( 'NONE', *, *, #303, .T. ) ;
#298 = VERTEX_POINT ( 'NONE', #73 ) ;
#299 = APPLICATION_PROTOCOL_DEFINITION ( 'draft international standard', 'automotive_design', 1998, #125 ) ;
#300 = PRODUCT ( '145207', '145207', '', ( #201 ) ) ;
#301 = CARTESIAN_POINT ( 'NONE',  ( 160.1036204187350900, 0.0000000000000000000, -5.375635074531225900E-014 ) ) ;
#302 = ORIENTED_EDGE ( 'NONE', *, *, #36, .T. ) ;
#303 = EDGE_CURVE ( 'NONE', #298, #9, #39, .T. ) ;
#304 = DIRECTION ( 'NONE',  ( 0.0000000000000000000, 0.0000000000000000000, 1.000000000000000000 ) ) ;
#305 = FACE_OUTER_BOUND ( 'NONE', #234, .T. ) ;
#306 = EDGE_CURVE ( 'NONE', #298, #287, #29, .T. ) ;
#307 = CARTESIAN_POINT ( 'NONE',  ( 181.0781574616522700, 0.0000000000000000000, -6.053013926206084400E-014 ) ) ;
#308 = FACE_OUTER_BOUND ( 'NONE', #94, .T. ) ;
#309 = UNCERTAINTY_MEASURE_WITH_UNIT (LENGTH_MEASURE( 1.000000000000000100E-005 ), #45, 'distance_accuracy_value', 'NONE');
#310 = DIRECTION ( 'NONE',  ( -1.000000000000000000, -0.0000000000000000000, 2.150590265972864100E-016 ) ) ;
#311 =( NAMED_UNIT ( * ) PLANE_ANGLE_UNIT ( ) SI_UNIT ( $, .RADIAN. ) );
#312 = CARTESIAN_POINT ( 'NONE',  ( -185.2744740506581700, 0.0000000000000000000, 6.350000000000013900 ) ) ;
#313 = PRESENTATION_STYLE_ASSIGNMENT (( #207 ) ) ;
#314 = COLOUR_RGB ( '',1.000000000000000000, 1.000000000000000000, 1.000000000000000000 ) ;
#315 =( GEOMETRIC_REPRESENTATION_CONTEXT ( 3 ) GLOBAL_UNCERTAINTY_ASSIGNED_CONTEXT ( ( #209 ) ) GLOBAL_UNIT_ASSIGNED_CONTEXT ( ( #11, #311, #219 ) ) REPRESENTATION_CONTEXT ( 'NONE', 'WORKASPACE' ) );
#316 = ORIENTED_EDGE ( 'NONE', *, *, #303, .F. ) ;
#317 = DIRECTION ( 'NONE',  ( 0.0000000000000000000, 1.000000000000000000, 0.0000000000000000000 ) ) ;
#318 = SURFACE_STYLE_FILL_AREA ( #264 ) ;
#319 = DIRECTION ( 'NONE',  ( -1.000000000000000000, -0.0000000000000000000, -0.0000000000000000000 ) ) ;
#320 = ADVANCED_FACE ( 'NONE', ( #175 ), #21, .T. ) ;
#321 = DIRECTION ( 'NONE',  ( -1.000000000000000000, -0.0000000000000000000, 2.150590265972864100E-016 ) ) ;
#322 = VERTEX_POINT ( 'NONE', #6 ) ;
#323 = DIRECTION ( 'NONE',  ( 0.0000000000000000000, 0.0000000000000000000, 1.000000000000000000 ) ) ;
#324 = ADVANCED_FACE ( 'NONE', ( #149 ), #139, .F. ) ;
#325 = AXIS2_PLACEMENT_3D ( 'NONE', #112, #269, #55 ) ;
#326 = AXIS2_PLACEMENT_3D ( 'NONE', #172, #333, #184 ) ;
#327 = FACE_OUTER_BOUND ( 'NONE', #88, .T. ) ;
#328 = SPHERICAL_SURFACE ( 'NONE', #206, 19.30000000000000800 ) ;
#329 = PRODUCT_DEFINITION ( 'Î´Öª', '', #116, #81 ) ;
#330 = VERTEX_POINT ( 'NONE', #278 ) ;
#331 =( GEOMETRIC_REPRESENTATION_CONTEXT ( 3 ) GLOBAL_UNCERTAINTY_ASSIGNED_CONTEXT ( ( #100 ) ) GLOBAL_UNIT_ASSIGNED_CONTEXT ( ( #182, #44, #210 ) ) REPRESENTATION_CONTEXT ( 'NONE', 'WORKASPACE' ) );
#332 = ADVANCED_FACE ( 'NONE', ( #308 ), #335, .T. ) ;
#333 = DIRECTION ( 'NONE',  ( 2.633713485501122900E-032, 1.000000000000000000, 1.224646799147353200E-016 ) ) ;
#334 = CARTESIAN_POINT ( 'NONE',  ( 162.6781574616522600, 0.0000000000000000000, -5.940346420684528600E-014 ) ) ;
#335 = CYLINDRICAL_SURFACE ( 'NONE', #293, 6.349999999999937500 ) ;
#336 = ORIENTED_EDGE ( 'NONE', *, *, #164, .F. ) ;
#337 = CARTESIAN_POINT ( 'NONE',  ( 181.0781574616522700, 0.0000000000000000000, -6.053013926206084400E-014 ) ) ;
#338 = CARTESIAN_POINT ( 'NONE',  ( 271.5781574616522700, 0.0000000000000000000, 0.0000000000000000000 ) ) ;
#339 = SURFACE_STYLE_USAGE ( .BOTH. , #341 ) ;
#340 = AXIS2_PLACEMENT_3D ( 'NONE', #35, #236, #289 ) ;
#341 = SURFACE_SIDE_STYLE ('',( #171 ) ) ;
#342 = ADVANCED_BREP_SHAPE_REPRESENTATION ( '145207', ( #155, #227, #285 ), #331 ) ;
#343 = ORIENTED_EDGE ( 'NONE', *, *, #211, .F. ) ;
#344 = CARTESIAN_POINT ( 'NONE',  ( 160.1036204187350900, 7.776507174585730600E-016, -6.350000000000095600 ) ) ;
#345 = AXIS2_PLACEMENT_3D ( 'NONE', #307, #52, #282 ) ;
#346 = SURFACE_STYLE_USAGE ( .BOTH. , #176 ) ;
#347 = ORIENTED_EDGE ( 'NONE', *, *, #122, .F. ) ;
ENDSEC;
END-ISO-10303-21;
