ISO-10303-21;
HEADER;
FILE_DESCRIPTION (( 'STEP AP214' ),
    '1' );
FILE_NAME ('145196.STEP',
    '2019-06-13T07:01:20',
    ( 'user' ),
    ( 'Î¢ÈíÖÐ¹ú' ),
    'SwSTEP 2.0',
    'SolidWorks 2016',
    '' );
FILE_SCHEMA (( 'AUTOMOTIVE_DESIGN' ));
ENDSEC;

DATA;
#1 = PRODUCT_DEFINITION ( 'Î´Öª', '', #343, #254 ) ;
#2 =( NAMED_UNIT ( * ) SI_UNIT ( $, .STERADIAN. ) SOLID_ANGLE_UNIT ( ) );
#3 = AXIS2_PLACEMENT_3D ( 'NONE', #296, #322, #312 ) ;
#4 = EDGE_LOOP ( 'NONE', ( #61, #275, #331, #249 ) ) ;
#5 = DIRECTION ( 'NONE',  ( -1.000000000000000000, -0.0000000000000000000, -0.0000000000000000000 ) ) ;
#6 = DIRECTION ( 'NONE',  ( 0.0000000000000000000, 0.0000000000000000000, -1.000000000000000000 ) ) ;
#7 = DIRECTION ( 'NONE',  ( -1.000000000000000000, -0.0000000000000000000, 1.836970198721029900E-016 ) ) ;
#8 = AXIS2_PLACEMENT_3D ( 'NONE', #223, #174, #196 ) ;
#9 = ADVANCED_FACE ( 'NONE', ( #337 ), #154, .T. ) ;
#10 = PRESENTATION_LAYER_ASSIGNMENT (  '', '', ( #99 ) ) ;
#11 = DIRECTION ( 'NONE',  ( -0.0000000000000000000, -1.000000000000000000, -0.0000000000000000000 ) ) ;
#12 = SPHERICAL_SURFACE ( 'NONE', #263, 92.30000000000002600 ) ;
#13 = UNCERTAINTY_MEASURE_WITH_UNIT (LENGTH_MEASURE( 1.000000000000000100E-005 ), #33, 'distance_accuracy_value', 'NONE');
#14 = CLOSED_SHELL ( 'NONE', ( #126, #330, #18, #173, #82, #52 ) ) ;
#15 = DIRECTION ( 'NONE',  ( -1.000000000000000000, -0.0000000000000000000, 1.836970198721029900E-016 ) ) ;
#16 = AXIS2_PLACEMENT_3D ( 'NONE', #155, #11, #328 ) ;
#17 = AXIS2_PLACEMENT_3D ( 'NONE', #179, #247, #133 ) ;
#18 = ADVANCED_FACE ( 'NONE', ( #232 ), #157, .T. ) ;
#19 = CIRCLE ( 'NONE', #233, 12.50000000000004300 ) ;
#20 = ORIENTED_EDGE ( 'NONE', *, *, #158, .F. ) ;
#21 = VERTEX_POINT ( 'NONE', #121 ) ;
#22 = AXIS2_PLACEMENT_3D ( 'NONE', #283, #333, #304 ) ;
#23 = CIRCLE ( 'NONE', #3, 68.87000000000055900 ) ;
#24 = ORIENTED_EDGE ( 'NONE', *, *, #158, .T. ) ;
#25 = COLOUR_RGB ( '',1.000000000000000000, 1.000000000000000000, 1.000000000000000000 ) ;
#26 = DIRECTION ( 'NONE',  ( -1.000000000000000000, -0.0000000000000000000, -0.0000000000000000000 ) ) ;
#27 = MANIFOLD_SOLID_BREP ( 'Ðý×ª3', #14 ) ;
#28 = DIRECTION ( 'NONE',  ( 0.0000000000000000000, 0.0000000000000000000, 1.000000000000000000 ) ) ;
#29 = AXIS2_PLACEMENT_3D ( 'NONE', #205, #269, #242 ) ;
#30 = ORIENTED_EDGE ( 'NONE', *, *, #161, .T. ) ;
#31 = SPHERICAL_SURFACE ( 'NONE', #95, 204.1500000000000100 ) ;
#32 = EDGE_CURVE ( 'NONE', #65, #107, #271, .T. ) ;
#33 =( LENGTH_UNIT ( ) NAMED_UNIT ( * ) SI_UNIT ( .MILLI., .METRE. ) );
#34 = CIRCLE ( 'NONE', #59, 12.50000000000000000 ) ;
#35 = ORIENTED_EDGE ( 'NONE', *, *, #71, .F. ) ;
#36 = FILL_AREA_STYLE_COLOUR ( '', #25 ) ;
#37 = FACE_OUTER_BOUND ( 'NONE', #347, .T. ) ;
#38 = PRODUCT_CONTEXT ( 'NONE', #221, 'mechanical' ) ;
#39 = DIRECTION ( 'NONE',  ( -1.000000000000000000, -0.0000000000000000000, 1.836970198721029900E-016 ) ) ;
#40 = AXIS2_PLACEMENT_3D ( 'NONE', #159, #213, #6 ) ;
#41 = CARTESIAN_POINT ( 'NONE',  ( 221.6820195398398400, 0.0000000000000000000, 12.50000000000000000 ) ) ;
#42 = CIRCLE ( 'NONE', #49, 12.49999999999998800 ) ;
#43 = ADVANCED_FACE ( 'NONE', ( #37 ), #57, .F. ) ;
#44 = CYLINDRICAL_SURFACE ( 'NONE', #79, 12.50000000000004300 ) ;
#45 = UNCERTAINTY_MEASURE_WITH_UNIT (LENGTH_MEASURE( 1.000000000000000100E-005 ), #162, 'distance_accuracy_value', 'NONE');
#46 = DIRECTION ( 'NONE',  ( 2.249639673992786700E-032, 1.000000000000000000, 1.224646799147353200E-016 ) ) ;
#47 = VECTOR ( 'NONE', #5, 1000.000000000000000 ) ;
#48 = CARTESIAN_POINT ( 'NONE',  ( 289.4081363634115300, 0.0000000000000000000, -1.334762154091193900E-021 ) ) ;
#49 = AXIS2_PLACEMENT_3D ( 'NONE', #94, #199, #143 ) ;
#50 = MANIFOLD_SOLID_BREP ( 'Ðý×ª1', #309 ) ;
#51 = CARTESIAN_POINT ( 'NONE',  ( -0.8160621761658039000, 0.0000000000000000000, 0.0000000000000000000 ) ) ;
#52 = ADVANCED_FACE ( 'NONE', ( #160 ), #31, .F. ) ;
#53 = DIRECTION ( 'NONE',  ( 0.0000000000000000000, 0.0000000000000000000, 1.000000000000000000 ) ) ;
#54 = CIRCLE ( 'NONE', #281, 68.87000000000055900 ) ;
#55 = ORIENTED_EDGE ( 'NONE', *, *, #105, .F. ) ;
#56 = VERTEX_POINT ( 'NONE', #70 ) ;
#57 = SPHERICAL_SURFACE ( 'NONE', #16, 68.87000000000055900 ) ;
#58 = DIRECTION ( 'NONE',  ( 0.0000000000000000000, -1.000000000000000000, 0.0000000000000000000 ) ) ;
#59 = AXIS2_PLACEMENT_3D ( 'NONE', #123, #166, #53 ) ;
#60 = CARTESIAN_POINT ( 'NONE',  ( 221.6820195398398400, 1.530808498934196800E-015, -12.50000000000008300 ) ) ;
#61 = ORIENTED_EDGE ( 'NONE', *, *, #228, .T. ) ;
#62 = SURFACE_SIDE_STYLE ('',( #206 ) ) ;
#63 = CIRCLE ( 'NONE', #22, 68.87000000000055900 ) ;
#64 = FILL_AREA_STYLE ('',( #66 ) ) ;
#65 = VERTEX_POINT ( 'NONE', #198 ) ;
#66 = FILL_AREA_STYLE_COLOUR ( '', #240 ) ;
#67 = DIRECTION ( 'NONE',  ( 0.0000000000000000000, 0.0000000000000000000, -1.000000000000000000 ) ) ;
#68 = DIRECTION ( 'NONE',  ( -0.0000000000000000000, 1.000000000000000000, 1.224646799147353200E-016 ) ) ;
#69 = ORIENTED_EDGE ( 'NONE', *, *, #97, .T. ) ;
#70 = CARTESIAN_POINT ( 'NONE',  ( 217.1877946459879600, 0.0000000000000000000, 12.49999999999999500 ) ) ;
#71 = EDGE_CURVE ( 'NONE', #65, #129, #287, .T. ) ;
#72 = EDGE_CURVE ( 'NONE', #21, #285, #291, .T. ) ;
#73 = VERTEX_POINT ( 'NONE', #164 ) ;
#74 = ORIENTED_EDGE ( 'NONE', *, *, #90, .F. ) ;
#75 = PRESENTATION_STYLE_ASSIGNMENT (( #81 ) ) ;
#76 = DIRECTION ( 'NONE',  ( 1.821459649775641300E-016, 0.0000000000000000000, 1.000000000000000000 ) ) ;
#77 = AXIS2_PLACEMENT_3D ( 'NONE', #212, #184, #289 ) ;
#78 = FACE_OUTER_BOUND ( 'NONE', #332, .T. ) ;
#79 = AXIS2_PLACEMENT_3D ( 'NONE', #102, #222, #76 ) ;
#80 = VERTEX_POINT ( 'NONE', #276 ) ;
#81 = SURFACE_STYLE_USAGE ( .BOTH. , #260 ) ;
#82 = ADVANCED_FACE ( 'NONE', ( #261 ), #286, .T. ) ;
#83 = DIRECTION ( 'NONE',  ( 0.0000000000000000000, 0.0000000000000000000, 1.000000000000000000 ) ) ;
#84 = EDGE_CURVE ( 'NONE', #321, #285, #87, .T. ) ;
#85 = EDGE_LOOP ( 'NONE', ( #298, #144, #239, #20 ) ) ;
#86 = ADVANCED_FACE ( 'NONE', ( #230 ), #245, .F. ) ;
#87 = CIRCLE ( 'NONE', #77, 204.1500000000000100 ) ;
#88 = ORIENTED_EDGE ( 'NONE', *, *, #32, .F. ) ;
#89 = CARTESIAN_POINT ( 'NONE',  ( 125.7381363634115300, 0.0000000000000000000, -7.774840603276192800E-022 ) ) ;
#90 = EDGE_CURVE ( 'NONE', #80, #56, #185, .T. ) ;
#91 =( NAMED_UNIT ( * ) PLANE_ANGLE_UNIT ( ) SI_UNIT ( $, .RADIAN. ) );
#92 = ORIENTED_EDGE ( 'NONE', *, *, #90, .T. ) ;
#93 = CARTESIAN_POINT ( 'NONE',  ( 289.4081363634115300, 0.0000000000000000000, -1.334762154091193900E-021 ) ) ;
#94 = CARTESIAN_POINT ( 'NONE',  ( 221.6820195398398400, 0.0000000000000000000, 0.0000000000000000000 ) ) ;
#95 = AXIS2_PLACEMENT_3D ( 'NONE', #231, #112, #201 ) ;
#96 = ORIENTED_EDGE ( 'NONE', *, *, #301, .F. ) ;
#97 = EDGE_CURVE ( 'NONE', #56, #80, #339, .T. ) ;
#98 = DIRECTION ( 'NONE',  ( -0.0000000000000000000, -1.000000000000000000, -0.0000000000000000000 ) ) ;
#99 = STYLED_ITEM ( 'NONE', ( #75 ), #27 ) ;
#100 = SHAPE_DEFINITION_REPRESENTATION ( #178, #187 ) ;
#101 = DIRECTION ( 'NONE',  ( -0.0000000000000000000, 1.000000000000000000, 0.0000000000000000000 ) ) ;
#102 = CARTESIAN_POINT ( 'NONE',  ( -0.8160621761658039000, 0.0000000000000000000, 0.0000000000000000000 ) ) ;
#103 = EDGE_CURVE ( 'NONE', #107, #65, #42, .T. ) ;
#104 = LINE ( 'NONE', #194, #329 ) ;
#105 = EDGE_CURVE ( 'NONE', #73, #80, #210, .T. ) ;
#106 = DIRECTION ( 'NONE',  ( -0.0000000000000000000, 1.000000000000000000, 0.0000000000000000000 ) ) ;
#107 = VERTEX_POINT ( 'NONE', #310 ) ;
#108 = DIRECTION ( 'NONE',  ( 0.0000000000000000000, 0.0000000000000000000, 1.000000000000000000 ) ) ;
#109 = EDGE_CURVE ( 'NONE', #266, #80, #317, .T. ) ;
#110 = CIRCLE ( 'NONE', #40, 92.30000000000002600 ) ;
#111 = DIRECTION ( 'NONE',  ( -1.000000000000000000, -0.0000000000000000000, -0.0000000000000000000 ) ) ;
#112 = DIRECTION ( 'NONE',  ( -0.0000000000000000000, -1.000000000000000000, -0.0000000000000000000 ) ) ;
#113 = DIRECTION ( 'NONE',  ( 0.0000000000000000000, 0.0000000000000000000, 1.000000000000000000 ) ) ;
#114 = ORIENTED_EDGE ( 'NONE', *, *, #115, .F. ) ;
#115 = EDGE_CURVE ( 'NONE', #266, #282, #224, .T. ) ;
#116 = CARTESIAN_POINT ( 'NONE',  ( 224.9811800137613900, 0.0000000000000000000, 12.50000000000000000 ) ) ;
#117 = PRESENTATION_STYLE_ASSIGNMENT (( #323 ) ) ;
#118 = DIRECTION ( 'NONE',  ( 0.0000000000000000000, 0.0000000000000000000, 1.000000000000000000 ) ) ;
#119 = EDGE_LOOP ( 'NONE', ( #225, #145, #92 ) ) ;
#120 = CARTESIAN_POINT ( 'NONE',  ( 289.4081363634115300, 0.0000000000000000000, -1.334762154091193900E-021 ) ) ;
#121 = CARTESIAN_POINT ( 'NONE',  ( 224.9811800137613900, 1.530808498934191700E-015, -12.50000000000000200 ) ) ;
#122 =( NAMED_UNIT ( * ) PLANE_ANGLE_UNIT ( ) SI_UNIT ( $, .RADIAN. ) );
#123 = CARTESIAN_POINT ( 'NONE',  ( 224.9811800137613900, 0.0000000000000000000, 0.0000000000000000000 ) ) ;
#124 = DIRECTION ( 'NONE',  ( 0.0000000000000000000, 0.0000000000000000000, 1.000000000000000000 ) ) ;
#125 = CARTESIAN_POINT ( 'NONE',  ( 217.1877946459879600, 0.0000000000000000000, -4.004665881885428000E-014 ) ) ;
#126 = ADVANCED_FACE ( 'NONE', ( #335 ), #170, .F. ) ;
#127 = FACE_OUTER_BOUND ( 'NONE', #119, .T. ) ;
#128 = AXIS2_PLACEMENT_3D ( 'NONE', #51, #200, #188 ) ;
#129 = VERTEX_POINT ( 'NONE', #197 ) ;
#130 = ADVANCED_FACE ( 'NONE', ( #313 ), #44, .T. ) ;
#131 = CARTESIAN_POINT ( 'NONE',  ( 220.5381363634109600, 0.0000000000000000000, 8.434141170965738500E-015 ) ) ;
#132 = SPHERICAL_SURFACE ( 'NONE', #268, 68.87000000000055900 ) ;
#133 = DIRECTION ( 'NONE',  ( 1.000000000000000000, 0.0000000000000000000, 0.0000000000000000000 ) ) ;
#134 = AXIS2_PLACEMENT_3D ( 'NONE', #229, #7, #83 ) ;
#135 = SURFACE_SIDE_STYLE ('',( #227 ) ) ;
#136 = DIRECTION ( 'NONE',  ( 3.007104617077888300E-016, 0.0000000000000000000, 1.000000000000000000 ) ) ;
#137 = CARTESIAN_POINT ( 'NONE',  ( 125.7381363634115300, 0.0000000000000000000, -7.774840603276192800E-022 ) ) ;
#138 = VECTOR ( 'NONE', #15, 1000.000000000000000 ) ;
#139 = VERTEX_POINT ( 'NONE', #131 ) ;
#140 = CARTESIAN_POINT ( 'NONE',  ( 221.6820195398398400, 0.0000000000000000000, 0.0000000000000000000 ) ) ;
#141 = DIRECTION ( 'NONE',  ( 0.0000000000000000000, 0.0000000000000000000, 1.000000000000000000 ) ) ;
#142 = COLOUR_RGB ( '',1.000000000000000000, 1.000000000000000000, 1.000000000000000000 ) ;
#143 = DIRECTION ( 'NONE',  ( 0.0000000000000000000, 0.0000000000000000000, 1.000000000000000000 ) ) ;
#144 = ORIENTED_EDGE ( 'NONE', *, *, #169, .T. ) ;
#145 = ORIENTED_EDGE ( 'NONE', *, *, #105, .T. ) ;
#146 = VECTOR ( 'NONE', #220, 1000.000000000000000 ) ;
#147 = DIRECTION ( 'NONE',  ( 0.0000000000000000000, 0.0000000000000000000, 1.000000000000000000 ) ) ;
#148 = MECHANICAL_DESIGN_GEOMETRIC_PRESENTATION_REPRESENTATION (  '', ( #256 ), #272 ) ;
#149 = ORIENTED_EDGE ( 'NONE', *, *, #103, .T. ) ;
#150 = DIRECTION ( 'NONE',  ( -1.000000000000000000, -0.0000000000000000000, 1.836970198721029900E-016 ) ) ;
#151 = AXIS2_PLACEMENT_3D ( 'NONE', #290, #98, #344 ) ;
#152 = ORIENTED_EDGE ( 'NONE', *, *, #236, .F. ) ;
#153 = ADVANCED_FACE ( 'NONE', ( #306 ), #252, .F. ) ;
#154 = CYLINDRICAL_SURFACE ( 'NONE', #128, 12.50000000000004300 ) ;
#155 = CARTESIAN_POINT ( 'NONE',  ( 289.4081363634115300, 0.0000000000000000000, -1.334762154091193900E-021 ) ) ;
#156 = EDGE_LOOP ( 'NONE', ( #258, #284, #24, #88 ) ) ;
#157 = SPHERICAL_SURFACE ( 'NONE', #338, 68.87000000000055900 ) ;
#158 = EDGE_CURVE ( 'NONE', #321, #107, #104, .T. ) ;
#159 = CARTESIAN_POINT ( 'NONE',  ( 125.7381363634115300, 0.0000000000000000000, -7.774840603276192800E-022 ) ) ;
#160 = FACE_OUTER_BOUND ( 'NONE', #176, .T. ) ;
#161 = EDGE_CURVE ( 'NONE', #282, #56, #277, .T. ) ;
#162 =( LENGTH_UNIT ( ) NAMED_UNIT ( * ) SI_UNIT ( .MILLI., .METRE. ) );
#163 = ORIENTED_EDGE ( 'NONE', *, *, #270, .T. ) ;
#164 = CARTESIAN_POINT ( 'NONE',  ( 218.0381363634115500, 0.0000000000000000000, -1.130349073361413600E-014 ) ) ;
#165 =( NAMED_UNIT ( * ) SI_UNIT ( $, .STERADIAN. ) SOLID_ANGLE_UNIT ( ) );
#166 = DIRECTION ( 'NONE',  ( -1.000000000000000000, -0.0000000000000000000, -0.0000000000000000000 ) ) ;
#167 = SURFACE_STYLE_USAGE ( .BOTH. , #135 ) ;
#168 = FILL_AREA_STYLE ('',( #191 ) ) ;
#169 = EDGE_CURVE ( 'NONE', #21, #65, #345, .T. ) ;
#170 = SPHERICAL_SURFACE ( 'NONE', #151, 204.1500000000000100 ) ;
#171 = ADVANCED_FACE ( 'NONE', ( #127 ), #12, .F. ) ;
#172 = AXIS2_PLACEMENT_3D ( 'NONE', #89, #46, #234 ) ;
#173 = ADVANCED_FACE ( 'NONE', ( #78 ), #132, .T. ) ;
#174 = DIRECTION ( 'NONE',  ( -1.000000000000000000, -0.0000000000000000000, -0.0000000000000000000 ) ) ;
#175 = DIRECTION ( 'NONE',  ( 0.0000000000000000000, 1.000000000000000000, 0.0000000000000000000 ) ) ;
#176 = EDGE_LOOP ( 'NONE', ( #267, #96, #235 ) ) ;
#177 = DIRECTION ( 'NONE',  ( 0.0000000000000000000, 0.0000000000000000000, -1.000000000000000000 ) ) ;
#178 = PRODUCT_DEFINITION_SHAPE ( 'NONE', 'NONE',  #1 ) ;
#179 = CARTESIAN_POINT ( 'NONE',  ( 0.0000000000000000000, 0.0000000000000000000, 0.0000000000000000000 ) ) ;
#180 = ORIENTED_EDGE ( 'NONE', *, *, #71, .T. ) ;
#181 = EDGE_CURVE ( 'NONE', #266, #139, #63, .T. ) ;
#182 = PRODUCT ( '145196', '145196', '', ( #38 ) ) ;
#183 = MECHANICAL_DESIGN_GEOMETRIC_PRESENTATION_REPRESENTATION (  '', ( #299 ), #279 ) ;
#184 = DIRECTION ( 'NONE',  ( 0.0000000000000000000, -1.000000000000000000, -1.224646799147353200E-016 ) ) ;
#185 = CIRCLE ( 'NONE', #243, 12.50000000000004100 ) ;
#186 =( NAMED_UNIT ( * ) SI_UNIT ( $, .STERADIAN. ) SOLID_ANGLE_UNIT ( ) );
#187 = ADVANCED_BREP_SHAPE_REPRESENTATION ( '145196', ( #50, #27, #17 ), #305 ) ;
#188 = DIRECTION ( 'NONE',  ( 1.821459649775641300E-016, 0.0000000000000000000, 1.000000000000000000 ) ) ;
#189 = ORIENTED_EDGE ( 'NONE', *, *, #115, .T. ) ;
#190 = CARTESIAN_POINT ( 'NONE',  ( 217.1877946459879600, 0.0000000000000000000, 0.0000000000000000000 ) ) ;
#191 = FILL_AREA_STYLE_COLOUR ( '', #142 ) ;
#192 = AXIS2_PLACEMENT_3D ( 'NONE', #190, #340, #141 ) ;
#193 = APPLICATION_CONTEXT ( 'automotive_design' ) ;
#194 = CARTESIAN_POINT ( 'NONE',  ( 217.1877946459879600, 0.0000000000000000000, 12.49999999999999300 ) ) ;
#195 = FACE_OUTER_BOUND ( 'NONE', #85, .T. ) ;
#196 = DIRECTION ( 'NONE',  ( 0.0000000000000000000, 0.0000000000000000000, 1.000000000000000000 ) ) ;
#197 = CARTESIAN_POINT ( 'NONE',  ( 220.5381363634109600, 0.0000000000000000000, 4.217069918101791300E-015 ) ) ;
#198 = CARTESIAN_POINT ( 'NONE',  ( 221.6820195398398400, 1.530808498934193100E-015, -12.50000000000001400 ) ) ;
#199 = DIRECTION ( 'NONE',  ( -1.000000000000000000, -0.0000000000000000000, -0.0000000000000000000 ) ) ;
#200 = DIRECTION ( 'NONE',  ( -1.000000000000000000, -0.0000000000000000000, 1.836970198721029900E-016 ) ) ;
#201 = DIRECTION ( 'NONE',  ( 0.0000000000000000000, 0.0000000000000000000, -1.000000000000000000 ) ) ;
#202 =( GEOMETRIC_REPRESENTATION_CONTEXT ( 3 ) GLOBAL_UNCERTAINTY_ASSIGNED_CONTEXT ( ( #293 ) ) GLOBAL_UNIT_ASSIGNED_CONTEXT ( ( #264, #91, #186 ) ) REPRESENTATION_CONTEXT ( 'NONE', 'WORKASPACE' ) );
#203 = EDGE_LOOP ( 'NONE', ( #149, #180, #152 ) ) ;
#204 = ORIENTED_EDGE ( 'NONE', *, *, #236, .T. ) ;
#205 = CARTESIAN_POINT ( 'NONE',  ( 217.1877946459879600, 0.0000000000000000000, -4.004665881885428000E-014 ) ) ;
#206 = SURFACE_STYLE_FILL_AREA ( #168 ) ;
#207 = CARTESIAN_POINT ( 'NONE',  ( 221.6820195398398400, 0.0000000000000000000, -4.087223453848988500E-014 ) ) ;
#208 = CARTESIAN_POINT ( 'NONE',  ( 289.4081363634115300, 0.0000000000000000000, -1.334762154091193900E-021 ) ) ;
#209 = DIRECTION ( 'NONE',  ( 0.0000000000000000000, 1.000000000000000000, 0.0000000000000000000 ) ) ;
#210 = CIRCLE ( 'NONE', #172, 92.30000000000002600 ) ;
#211 = CIRCLE ( 'NONE', #8, 12.50000000000000000 ) ;
#212 = CARTESIAN_POINT ( 'NONE',  ( 428.7481363634109900, 0.0000000000000000000, 0.0000000000000000000 ) ) ;
#213 = DIRECTION ( 'NONE',  ( 0.0000000000000000000, -1.000000000000000000, 0.0000000000000000000 ) ) ;
#214 = AXIS2_PLACEMENT_3D ( 'NONE', #137, #106, #294 ) ;
#215 = EDGE_LOOP ( 'NONE', ( #253, #189, #30, #74 ) ) ;
#216 =( NAMED_UNIT ( * ) PLANE_ANGLE_UNIT ( ) SI_UNIT ( $, .RADIAN. ) );
#217 = AXIS2_PLACEMENT_3D ( 'NONE', #140, #26, #265 ) ;
#218 = ORIENTED_EDGE ( 'NONE', *, *, #72, .F. ) ;
#219 = CARTESIAN_POINT ( 'NONE',  ( 289.4081363634115300, 0.0000000000000000000, -1.334762154091193900E-021 ) ) ;
#220 = DIRECTION ( 'NONE',  ( -1.000000000000000000, -0.0000000000000000000, 1.836970198721029900E-016 ) ) ;
#221 = APPLICATION_CONTEXT ( 'automotive_design' ) ;
#222 = DIRECTION ( 'NONE',  ( -1.000000000000000000, -0.0000000000000000000, 1.836970198721029900E-016 ) ) ;
#223 = CARTESIAN_POINT ( 'NONE',  ( 224.9811800137613900, 0.0000000000000000000, 0.0000000000000000000 ) ) ;
#224 = CIRCLE ( 'NONE', #134, 12.50000000000004300 ) ;
#225 = ORIENTED_EDGE ( 'NONE', *, *, #270, .F. ) ;
#226 = ORIENTED_EDGE ( 'NONE', *, *, #84, .T. ) ;
#227 = SURFACE_STYLE_FILL_AREA ( #318 ) ;
#228 = EDGE_CURVE ( 'NONE', #282, #266, #19, .T. ) ;
#229 = CARTESIAN_POINT ( 'NONE',  ( 221.6820195398398400, 0.0000000000000000000, -4.087223453848988500E-014 ) ) ;
#230 = FACE_OUTER_BOUND ( 'NONE', #324, .T. ) ;
#231 = CARTESIAN_POINT ( 'NONE',  ( 428.7481363634109900, 0.0000000000000000000, 0.0000000000000000000 ) ) ;
#232 = FACE_OUTER_BOUND ( 'NONE', #203, .T. ) ;
#233 = AXIS2_PLACEMENT_3D ( 'NONE', #207, #150, #28 ) ;
#234 = DIRECTION ( 'NONE',  ( 0.0000000000000000000, -1.224646799147353000E-016, 1.000000000000000000 ) ) ;
#235 = ORIENTED_EDGE ( 'NONE', *, *, #72, .T. ) ;
#236 = EDGE_CURVE ( 'NONE', #107, #129, #54, .T. ) ;
#237 = ORIENTED_EDGE ( 'NONE', *, *, #297, .T. ) ;
#238 = DIRECTION ( 'NONE',  ( 0.0000000000000000000, -1.224646799147353200E-016, 1.000000000000000000 ) ) ;
#239 = ORIENTED_EDGE ( 'NONE', *, *, #103, .F. ) ;
#240 = COLOUR_RGB ( '',1.000000000000000000, 1.000000000000000000, 1.000000000000000000 ) ;
#241 = CARTESIAN_POINT ( 'NONE',  ( 217.1877946459879600, 0.0000000000000000000, 0.0000000000000000000 ) ) ;
#242 = DIRECTION ( 'NONE',  ( 0.0000000000000000000, 0.0000000000000000000, 1.000000000000000000 ) ) ;
#243 = AXIS2_PLACEMENT_3D ( 'NONE', #125, #39, #124 ) ;
#244 = SURFACE_STYLE_FILL_AREA ( #64 ) ;
#245 = SPHERICAL_SURFACE ( 'NONE', #214, 92.30000000000002600 ) ;
#246 = CYLINDRICAL_SURFACE ( 'NONE', #295, 12.49999999999999300 ) ;
#247 = DIRECTION ( 'NONE',  ( 0.0000000000000000000, 0.0000000000000000000, 1.000000000000000000 ) ) ;
#248 = EDGE_LOOP ( 'NONE', ( #259, #226, #218 ) ) ;
#249 = ORIENTED_EDGE ( 'NONE', *, *, #161, .F. ) ;
#250 = ORIENTED_EDGE ( 'NONE', *, *, #32, .T. ) ;
#251 = DIRECTION ( 'NONE',  ( -0.0000000000000000000, -1.000000000000000000, -0.0000000000000000000 ) ) ;
#252 = SPHERICAL_SURFACE ( 'NONE', #303, 68.87000000000055900 ) ;
#253 = ORIENTED_EDGE ( 'NONE', *, *, #109, .F. ) ;
#254 = PRODUCT_DEFINITION_CONTEXT ( 'detailed design', #193, 'design' ) ;
#255 = CARTESIAN_POINT ( 'NONE',  ( 428.7481363634109900, 0.0000000000000000000, 0.0000000000000000000 ) ) ;
#256 = STYLED_ITEM ( 'NONE', ( #278 ), #50 ) ;
#257 = CARTESIAN_POINT ( 'NONE',  ( 224.5981363634109600, 0.0000000000000000000, -1.250058220229660900E-014 ) ) ;
#258 = ORIENTED_EDGE ( 'NONE', *, *, #169, .F. ) ;
#259 = ORIENTED_EDGE ( 'NONE', *, *, #319, .F. ) ;
#260 = SURFACE_SIDE_STYLE ('',( #244 ) ) ;
#261 = FACE_OUTER_BOUND ( 'NONE', #156, .T. ) ;
#262 = PRESENTATION_LAYER_ASSIGNMENT (  '', '', ( #299 ) ) ;
#263 = AXIS2_PLACEMENT_3D ( 'NONE', #320, #101, #136 ) ;
#264 =( LENGTH_UNIT ( ) NAMED_UNIT ( * ) SI_UNIT ( .MILLI., .METRE. ) );
#265 = DIRECTION ( 'NONE',  ( 0.0000000000000000000, 0.0000000000000000000, 1.000000000000000000 ) ) ;
#266 = VERTEX_POINT ( 'NONE', #60 ) ;
#267 = ORIENTED_EDGE ( 'NONE', *, *, #84, .F. ) ;
#268 = AXIS2_PLACEMENT_3D ( 'NONE', #120, #175, #147 ) ;
#269 = DIRECTION ( 'NONE',  ( -1.000000000000000000, -0.0000000000000000000, 1.836970198721029900E-016 ) ) ;
#270 = EDGE_CURVE ( 'NONE', #73, #56, #110, .T. ) ;
#271 = CIRCLE ( 'NONE', #217, 12.49999999999998800 ) ;
#272 =( GEOMETRIC_REPRESENTATION_CONTEXT ( 3 ) GLOBAL_UNCERTAINTY_ASSIGNED_CONTEXT ( ( #315 ) ) GLOBAL_UNIT_ASSIGNED_CONTEXT ( ( #302, #326, #2 ) ) REPRESENTATION_CONTEXT ( 'NONE', 'WORKASPACE' ) );
#273 = APPLICATION_PROTOCOL_DEFINITION ( 'draft international standard', 'automotive_design', 1998, #221 ) ;
#274 = PRODUCT_RELATED_PRODUCT_CATEGORY ( 'part', '', ( #182 ) ) ;
#275 = ORIENTED_EDGE ( 'NONE', *, *, #109, .T. ) ;
#276 = CARTESIAN_POINT ( 'NONE',  ( 217.1877946459879600, 1.530808498934195900E-015, -12.50000000000005300 ) ) ;
#277 = LINE ( 'NONE', #308, #146 ) ;
#278 = PRESENTATION_STYLE_ASSIGNMENT (( #167 ) ) ;
#279 =( GEOMETRIC_REPRESENTATION_CONTEXT ( 3 ) GLOBAL_UNCERTAINTY_ASSIGNED_CONTEXT ( ( #13 ) ) GLOBAL_UNIT_ASSIGNED_CONTEXT ( ( #33, #122, #165 ) ) REPRESENTATION_CONTEXT ( 'NONE', 'WORKASPACE' ) );
#280 = CARTESIAN_POINT ( 'NONE',  ( -0.8160621761658062300, 1.530808498934196800E-015, -12.50000000000004300 ) ) ;
#281 = AXIS2_PLACEMENT_3D ( 'NONE', #208, #58, #177 ) ;
#282 = VERTEX_POINT ( 'NONE', #41 ) ;
#283 = CARTESIAN_POINT ( 'NONE',  ( 289.4081363634115300, 0.0000000000000000000, -1.334762154091193900E-021 ) ) ;
#284 = ORIENTED_EDGE ( 'NONE', *, *, #301, .T. ) ;
#285 = VERTEX_POINT ( 'NONE', #257 ) ;
#286 = CYLINDRICAL_SURFACE ( 'NONE', #192, 12.49999999999999300 ) ;
#287 = CIRCLE ( 'NONE', #334, 68.87000000000055900 ) ;
#288 = PRESENTATION_LAYER_ASSIGNMENT (  '', '', ( #256 ) ) ;
#289 = DIRECTION ( 'NONE',  ( 0.0000000000000000000, 1.224646799147353200E-016, -1.000000000000000000 ) ) ;
#290 = CARTESIAN_POINT ( 'NONE',  ( 428.7481363634109900, 0.0000000000000000000, 0.0000000000000000000 ) ) ;
#291 = CIRCLE ( 'NONE', #325, 204.1500000000000100 ) ;
#292 = DIRECTION ( 'NONE',  ( 0.0000000000000000000, 1.000000000000000000, -0.0000000000000000000 ) ) ;
#293 = UNCERTAINTY_MEASURE_WITH_UNIT (LENGTH_MEASURE( 1.000000000000000100E-005 ), #264, 'distance_accuracy_value', 'NONE');
#294 = DIRECTION ( 'NONE',  ( 3.007104617077888300E-016, 0.0000000000000000000, 1.000000000000000000 ) ) ;
#295 = AXIS2_PLACEMENT_3D ( 'NONE', #241, #111, #113 ) ;
#296 = CARTESIAN_POINT ( 'NONE',  ( 289.4081363634115300, 0.0000000000000000000, -1.334762154091193900E-021 ) ) ;
#297 = EDGE_CURVE ( 'NONE', #282, #139, #23, .T. ) ;
#298 = ORIENTED_EDGE ( 'NONE', *, *, #319, .T. ) ;
#299 = STYLED_ITEM ( 'NONE', ( #117 ), #187 ) ;
#300 = CARTESIAN_POINT ( 'NONE',  ( 217.1877946459879600, 1.530808498934190700E-015, -12.49999999999999300 ) ) ;
#301 = EDGE_CURVE ( 'NONE', #21, #321, #211, .T. ) ;
#302 =( LENGTH_UNIT ( ) NAMED_UNIT ( * ) SI_UNIT ( .MILLI., .METRE. ) );
#303 = AXIS2_PLACEMENT_3D ( 'NONE', #48, #251, #67 ) ;
#304 = DIRECTION ( 'NONE',  ( 0.0000000000000000000, 0.0000000000000000000, 1.000000000000000000 ) ) ;
#305 =( GEOMETRIC_REPRESENTATION_CONTEXT ( 3 ) GLOBAL_UNCERTAINTY_ASSIGNED_CONTEXT ( ( #45 ) ) GLOBAL_UNIT_ASSIGNED_CONTEXT ( ( #162, #216, #336 ) ) REPRESENTATION_CONTEXT ( 'NONE', 'WORKASPACE' ) );
#306 = FACE_OUTER_BOUND ( 'NONE', #316, .T. ) ;
#307 = ORIENTED_EDGE ( 'NONE', *, *, #228, .F. ) ;
#308 = CARTESIAN_POINT ( 'NONE',  ( -0.8160621761658016800, 0.0000000000000000000, 12.50000000000004300 ) ) ;
#309 = CLOSED_SHELL ( 'NONE', ( #153, #9, #171, #86, #130, #43 ) ) ;
#310 = CARTESIAN_POINT ( 'NONE',  ( 221.6820195398398400, 0.0000000000000000000, 12.50000000000001400 ) ) ;
#311 = MECHANICAL_DESIGN_GEOMETRIC_PRESENTATION_REPRESENTATION (  '', ( #99 ), #202 ) ;
#312 = DIRECTION ( 'NONE',  ( 0.0000000000000000000, 1.224646799147353200E-016, -1.000000000000000000 ) ) ;
#313 = FACE_OUTER_BOUND ( 'NONE', #215, .T. ) ;
#314 = ORIENTED_EDGE ( 'NONE', *, *, #181, .T. ) ;
#315 = UNCERTAINTY_MEASURE_WITH_UNIT (LENGTH_MEASURE( 1.000000000000000100E-005 ), #302, 'distance_accuracy_value', 'NONE');
#316 = EDGE_LOOP ( 'NONE', ( #307, #237, #342 ) ) ;
#317 = LINE ( 'NONE', #280, #138 ) ;
#318 = FILL_AREA_STYLE ('',( #36 ) ) ;
#319 = EDGE_CURVE ( 'NONE', #321, #21, #34, .T. ) ;
#320 = CARTESIAN_POINT ( 'NONE',  ( 125.7381363634115300, 0.0000000000000000000, -7.774840603276192800E-022 ) ) ;
#321 = VERTEX_POINT ( 'NONE', #116 ) ;
#322 = DIRECTION ( 'NONE',  ( -2.249639673992786700E-032, -1.000000000000000000, -1.224646799147353200E-016 ) ) ;
#323 = SURFACE_STYLE_USAGE ( .BOTH. , #62 ) ;
#324 = EDGE_LOOP ( 'NONE', ( #55, #163, #69 ) ) ;
#325 = AXIS2_PLACEMENT_3D ( 'NONE', #255, #292, #108 ) ;
#326 =( NAMED_UNIT ( * ) PLANE_ANGLE_UNIT ( ) SI_UNIT ( $, .RADIAN. ) );
#327 = APPLICATION_PROTOCOL_DEFINITION ( 'draft international standard', 'automotive_design', 1998, #193 ) ;
#328 = DIRECTION ( 'NONE',  ( 0.0000000000000000000, 0.0000000000000000000, -1.000000000000000000 ) ) ;
#329 = VECTOR ( 'NONE', #346, 1000.000000000000000 ) ;
#330 = ADVANCED_FACE ( 'NONE', ( #195 ), #246, .T. ) ;
#331 = ORIENTED_EDGE ( 'NONE', *, *, #97, .F. ) ;
#332 = EDGE_LOOP ( 'NONE', ( #35, #250, #204 ) ) ;
#333 = DIRECTION ( 'NONE',  ( -0.0000000000000000000, 1.000000000000000000, 0.0000000000000000000 ) ) ;
#334 = AXIS2_PLACEMENT_3D ( 'NONE', #93, #68, #238 ) ;
#335 = FACE_OUTER_BOUND ( 'NONE', #248, .T. ) ;
#336 =( NAMED_UNIT ( * ) SI_UNIT ( $, .STERADIAN. ) SOLID_ANGLE_UNIT ( ) );
#337 = FACE_OUTER_BOUND ( 'NONE', #4, .T. ) ;
#338 = AXIS2_PLACEMENT_3D ( 'NONE', #219, #209, #118 ) ;
#339 = CIRCLE ( 'NONE', #29, 12.50000000000004100 ) ;
#340 = DIRECTION ( 'NONE',  ( -1.000000000000000000, -0.0000000000000000000, -0.0000000000000000000 ) ) ;
#341 = ORIENTED_EDGE ( 'NONE', *, *, #297, .F. ) ;
#342 = ORIENTED_EDGE ( 'NONE', *, *, #181, .F. ) ;
#343 = PRODUCT_DEFINITION_FORMATION_WITH_SPECIFIED_SOURCE ( 'ÈÎºÎ', '', #182, .NOT_KNOWN. ) ;
#344 = DIRECTION ( 'NONE',  ( 0.0000000000000000000, 0.0000000000000000000, -1.000000000000000000 ) ) ;
#345 = LINE ( 'NONE', #300, #47 ) ;
#346 = DIRECTION ( 'NONE',  ( -1.000000000000000000, -0.0000000000000000000, -0.0000000000000000000 ) ) ;
#347 = EDGE_LOOP ( 'NONE', ( #341, #114, #314 ) ) ;
ENDSEC;
END-ISO-10303-21;
