ISO-10303-21;
HEADER;
FILE_DESCRIPTION (( 'STEP AP214' ),
    '1' );
FILE_NAME ('145181.STEP',
    '2019-06-13T01:54:22',
    ( 'user' ),
    ( 'Î¢ÈíÖÐ¹ú' ),
    'SwSTEP 2.0',
    'SolidWorks 2016',
    '' );
FILE_SCHEMA (( 'AUTOMOTIVE_DESIGN' ));
ENDSEC;

DATA;
#1 = EDGE_LOOP ( 'NONE', ( #262, #62, #216 ) ) ;
#2 = EDGE_LOOP ( 'NONE', ( #11, #154, #106 ) ) ;
#3 = FACE_OUTER_BOUND ( 'NONE', #137, .T. ) ;
#4 = EDGE_CURVE ( 'NONE', #28, #102, #328, .T. ) ;
#5 = UNCERTAINTY_MEASURE_WITH_UNIT (LENGTH_MEASURE( 1.000000000000000100E-005 ), #43, 'distance_accuracy_value', 'NONE');
#6 = AXIS2_PLACEMENT_3D ( 'NONE', #271, #315, #19 ) ;
#7 = ORIENTED_EDGE ( 'NONE', *, *, #4, .T. ) ;
#8 = DIRECTION ( 'NONE',  ( 0.0000000000000000000, 0.0000000000000000000, 1.000000000000000000 ) ) ;
#9 = SPHERICAL_SURFACE ( 'NONE', #196, 95.93999999999999800 ) ;
#10 = CIRCLE ( 'NONE', #221, 25.39999999999991700 ) ;
#11 = ORIENTED_EDGE ( 'NONE', *, *, #232, .F. ) ;
#12 = MECHANICAL_DESIGN_GEOMETRIC_PRESENTATION_REPRESENTATION (  '', ( #213 ), #163 ) ;
#13 = SPHERICAL_SURFACE ( 'NONE', #169, 78.56000000000001600 ) ;
#14 = DIRECTION ( 'NONE',  ( 0.0000000000000000000, 0.0000000000000000000, 1.000000000000000000 ) ) ;
#15 = ORIENTED_EDGE ( 'NONE', *, *, #69, .T. ) ;
#16 = DIRECTION ( 'NONE',  ( 0.0000000000000000000, 1.000000000000000000, 0.0000000000000000000 ) ) ;
#17 =( NAMED_UNIT ( * ) SI_UNIT ( $, .STERADIAN. ) SOLID_ANGLE_UNIT ( ) );
#18 = CIRCLE ( 'NONE', #293, 95.94000000000002600 ) ;
#19 = DIRECTION ( 'NONE',  ( 0.0000000000000000000, 0.0000000000000000000, 1.000000000000000000 ) ) ;
#20 = AXIS2_PLACEMENT_3D ( 'NONE', #255, #168, #253 ) ;
#21 = DIRECTION ( 'NONE',  ( 0.0000000000000000000, 0.0000000000000000000, -1.000000000000000000 ) ) ;
#22 = PRODUCT_RELATED_PRODUCT_CATEGORY ( 'part', '', ( #247 ) ) ;
#23 = FILL_AREA_STYLE ('',( #285 ) ) ;
#24 = DIRECTION ( 'NONE',  ( 0.0000000000000000000, 0.0000000000000000000, 1.000000000000000000 ) ) ;
#25 = EDGE_LOOP ( 'NONE', ( #98, #113, #87 ) ) ;
#26 = ADVANCED_FACE ( 'NONE', ( #150 ), #333, .T. ) ;
#27 = DIRECTION ( 'NONE',  ( 0.0000000000000000000, 0.0000000000000000000, -1.000000000000000000 ) ) ;
#28 = VERTEX_POINT ( 'NONE', #38 ) ;
#29 = ORIENTED_EDGE ( 'NONE', *, *, #49, .T. ) ;
#30 = COLOUR_RGB ( '',1.000000000000000000, 1.000000000000000000, 1.000000000000000000 ) ;
#31 = ORIENTED_EDGE ( 'NONE', *, *, #141, .F. ) ;
#32 = EDGE_CURVE ( 'NONE', #102, #239, #179, .T. ) ;
#33 = DIRECTION ( 'NONE',  ( -1.000000000000000000, -0.0000000000000000000, -0.0000000000000000000 ) ) ;
#34 = FACE_OUTER_BOUND ( 'NONE', #165, .T. ) ;
#35 = AXIS2_PLACEMENT_3D ( 'NONE', #336, #286, #284 ) ;
#36 = ORIENTED_EDGE ( 'NONE', *, *, #54, .F. ) ;
#37 = ORIENTED_EDGE ( 'NONE', *, *, #296, .T. ) ;
#38 = CARTESIAN_POINT ( 'NONE',  ( 148.0685806305240800, 3.110602869834274100E-015, -25.39999999999997400 ) ) ;
#39 = DIRECTION ( 'NONE',  ( -1.000000000000000000, -0.0000000000000000000, -0.0000000000000000000 ) ) ;
#40 = CARTESIAN_POINT ( 'NONE',  ( 148.0685806305240800, 0.0000000000000000000, 0.0000000000000000000 ) ) ;
#41 = CARTESIAN_POINT ( 'NONE',  ( 220.0519680682387800, 0.0000000000000000000, -6.357895833158929200E-014 ) ) ;
#42 = VECTOR ( 'NONE', #100, 1000.000000000000000 ) ;
#43 =( LENGTH_UNIT ( ) NAMED_UNIT ( * ) SI_UNIT ( .MILLI., .METRE. ) );
#44 = EDGE_LOOP ( 'NONE', ( #240, #37, #297, #251 ) ) ;
#45 = CARTESIAN_POINT ( 'NONE',  ( 385.1919680682388500, 0.0000000000000000000, 0.0000000000000000000 ) ) ;
#46 = ORIENTED_EDGE ( 'NONE', *, *, #241, .T. ) ;
#47 = CARTESIAN_POINT ( 'NONE',  ( -0.5519199926577972300, 0.0000000000000000000, 0.0000000000000000000 ) ) ;
#48 = CIRCLE ( 'NONE', #51, 25.39999999999997400 ) ;
#49 = EDGE_CURVE ( 'NONE', #130, #55, #323, .T. ) ;
#50 = FACE_OUTER_BOUND ( 'NONE', #1, .T. ) ;
#51 = AXIS2_PLACEMENT_3D ( 'NONE', #72, #83, #207 ) ;
#52 = DIRECTION ( 'NONE',  ( -1.000000000000000000, -0.0000000000000000000, -0.0000000000000000000 ) ) ;
#53 = SPHERICAL_SURFACE ( 'NONE', #268, 95.94000000000002600 ) ;
#54 = EDGE_CURVE ( 'NONE', #130, #86, #147, .T. ) ;
#55 = VERTEX_POINT ( 'NONE', #122 ) ;
#56 = ORIENTED_EDGE ( 'NONE', *, *, #334, .F. ) ;
#57 = DIRECTION ( 'NONE',  ( 0.0000000000000000000, -1.000000000000000000, -1.224646799147353200E-016 ) ) ;
#58 = CIRCLE ( 'NONE', #309, 95.93999999999999800 ) ;
#59 = UNCERTAINTY_MEASURE_WITH_UNIT (LENGTH_MEASURE( 1.000000000000000100E-005 ), #85, 'distance_accuracy_value', 'NONE');
#60 = DIRECTION ( 'NONE',  ( -0.0000000000000000000, 1.000000000000000000, 1.224646799147353200E-016 ) ) ;
#61 = ADVANCED_FACE ( 'NONE', ( #103 ), #341, .F. ) ;
#62 = ORIENTED_EDGE ( 'NONE', *, *, #223, .T. ) ;
#63 = ORIENTED_EDGE ( 'NONE', *, *, #81, .F. ) ;
#64 = MANIFOLD_SOLID_BREP ( 'Ðý×ª1', #153 ) ;
#65 = CARTESIAN_POINT ( 'NONE',  ( 55.55196806823881400, 0.0000000000000000000, 2.908812823309768300E-014 ) ) ;
#66 = DIRECTION ( 'NONE',  ( -0.0000000000000000000, -1.000000000000000000, -0.0000000000000000000 ) ) ;
#67 = EDGE_CURVE ( 'NONE', #164, #282, #234, .T. ) ;
#68 = DIRECTION ( 'NONE',  ( -1.000000000000000000, -0.0000000000000000000, -0.0000000000000000000 ) ) ;
#69 = EDGE_CURVE ( 'NONE', #239, #120, #301, .T. ) ;
#70 = ORIENTED_EDGE ( 'NONE', *, *, #190, .T. ) ;
#71 = FILL_AREA_STYLE ('',( #203 ) ) ;
#72 = CARTESIAN_POINT ( 'NONE',  ( 145.7114434534635700, 0.0000000000000000000, 0.0000000000000000000 ) ) ;
#73 = DIRECTION ( 'NONE',  ( 1.000000000000000000, 0.0000000000000000000, 0.0000000000000000000 ) ) ;
#74 = LINE ( 'NONE', #220, #135 ) ;
#75 =( GEOMETRIC_REPRESENTATION_CONTEXT ( 3 ) GLOBAL_UNCERTAINTY_ASSIGNED_CONTEXT ( ( #218 ) ) GLOBAL_UNIT_ASSIGNED_CONTEXT ( ( #269, #265, #308 ) ) REPRESENTATION_CONTEXT ( 'NONE', 'WORKASPACE' ) );
#76 = CARTESIAN_POINT ( 'NONE',  ( 148.0685806305240800, 0.0000000000000000000, 25.39999999999997400 ) ) ;
#77 =( NAMED_UNIT ( * ) SI_UNIT ( $, .STERADIAN. ) SOLID_ANGLE_UNIT ( ) );
#78 = SURFACE_STYLE_FILL_AREA ( #260 ) ;
#79 = EDGE_LOOP ( 'NONE', ( #94, #143, #210 ) ) ;
#80 = SHAPE_DEFINITION_REPRESENTATION ( #129, #322 ) ;
#81 = EDGE_CURVE ( 'NONE', #130, #164, #259, .T. ) ;
#82 = EDGE_LOOP ( 'NONE', ( #56, #160, #15 ) ) ;
#83 = DIRECTION ( 'NONE',  ( -1.000000000000000000, -0.0000000000000000000, -0.0000000000000000000 ) ) ;
#84 = CARTESIAN_POINT ( 'NONE',  ( 385.1919680682388500, 0.0000000000000000000, 0.0000000000000000000 ) ) ;
#85 =( LENGTH_UNIT ( ) NAMED_UNIT ( * ) SI_UNIT ( .MILLI., .METRE. ) );
#86 = VERTEX_POINT ( 'NONE', #289 ) ;
#87 = ORIENTED_EDGE ( 'NONE', *, *, #69, .F. ) ;
#88 = EDGE_CURVE ( 'NONE', #86, #55, #245, .T. ) ;
#89 = DIRECTION ( 'NONE',  ( 0.0000000000000000000, 0.0000000000000000000, 1.000000000000000000 ) ) ;
#90 = FACE_OUTER_BOUND ( 'NONE', #25, .T. ) ;
#91 = DIRECTION ( 'NONE',  ( 0.0000000000000000000, 1.224646799147353200E-016, -1.000000000000000000 ) ) ;
#92 =( GEOMETRIC_REPRESENTATION_CONTEXT ( 3 ) GLOBAL_UNCERTAINTY_ASSIGNED_CONTEXT ( ( #59 ) ) GLOBAL_UNIT_ASSIGNED_CONTEXT ( ( #85, #344, #17 ) ) REPRESENTATION_CONTEXT ( 'NONE', 'WORKASPACE' ) );
#93 = VECTOR ( 'NONE', #33, 1000.000000000000000 ) ;
#94 = ORIENTED_EDGE ( 'NONE', *, *, #108, .F. ) ;
#95 = CYLINDRICAL_SURFACE ( 'NONE', #159, 25.39999999999991700 ) ;
#96 = CARTESIAN_POINT ( 'NONE',  ( 55.55196806823881400, 0.0000000000000000000, 2.908812823309768300E-014 ) ) ;
#97 = ORIENTED_EDGE ( 'NONE', *, *, #4, .F. ) ;
#98 = ORIENTED_EDGE ( 'NONE', *, *, #219, .T. ) ;
#99 = DIRECTION ( 'NONE',  ( 0.0000000000000000000, 1.000000000000000000, 0.0000000000000000000 ) ) ;
#100 = DIRECTION ( 'NONE',  ( -1.000000000000000000, -0.0000000000000000000, -0.0000000000000000000 ) ) ;
#101 = APPLICATION_PROTOCOL_DEFINITION ( 'draft international standard', 'automotive_design', 1998, #104 ) ;
#102 = VERTEX_POINT ( 'NONE', #76 ) ;
#103 = FACE_OUTER_BOUND ( 'NONE', #79, .T. ) ;
#104 = APPLICATION_CONTEXT ( 'automotive_design' ) ;
#105 = ORIENTED_EDGE ( 'NONE', *, *, #88, .F. ) ;
#106 = ORIENTED_EDGE ( 'NONE', *, *, #238, .F. ) ;
#107 = CARTESIAN_POINT ( 'NONE',  ( 0.0000000000000000000, 0.0000000000000000000, 0.0000000000000000000 ) ) ;
#108 = EDGE_CURVE ( 'NONE', #86, #130, #254, .T. ) ;
#109 =( NAMED_UNIT ( * ) PLANE_ANGLE_UNIT ( ) SI_UNIT ( $, .RADIAN. ) );
#110 = CIRCLE ( 'NONE', #199, 95.93999999999999800 ) ;
#111 = AXIS2_PLACEMENT_3D ( 'NONE', #246, #243, #8 ) ;
#112 = ORIENTED_EDGE ( 'NONE', *, *, #296, .F. ) ;
#113 = ORIENTED_EDGE ( 'NONE', *, *, #334, .T. ) ;
#114 = ADVANCED_FACE ( 'NONE', ( #50 ), #195, .F. ) ;
#115 = DIRECTION ( 'NONE',  ( 0.0000000000000000000, -1.000000000000000000, 0.0000000000000000000 ) ) ;
#116 = CARTESIAN_POINT ( 'NONE',  ( -0.5519199926577972300, 3.110602869834266600E-015, -25.39999999999991700 ) ) ;
#117 = FACE_OUTER_BOUND ( 'NONE', #236, .T. ) ;
#118 = CIRCLE ( 'NONE', #6, 25.39999999999997400 ) ;
#119 =( NAMED_UNIT ( * ) PLANE_ANGLE_UNIT ( ) SI_UNIT ( $, .RADIAN. ) );
#120 = VERTEX_POINT ( 'NONE', #205 ) ;
#121 = CARTESIAN_POINT ( 'NONE',  ( 220.0519680682387800, 0.0000000000000000000, -6.357895833158929200E-014 ) ) ;
#122 = CARTESIAN_POINT ( 'NONE',  ( 154.4919680682388600, 0.0000000000000000000, -1.412630082816471900E-014 ) ) ;
#123 = DIRECTION ( 'NONE',  ( 0.0000000000000000000, 0.0000000000000000000, -1.000000000000000000 ) ) ;
#124 = VERTEX_POINT ( 'NONE', #148 ) ;
#125 = EDGE_CURVE ( 'NONE', #282, #164, #10, .T. ) ;
#126 = CARTESIAN_POINT ( 'NONE',  ( 155.8944975196085100, 0.0000000000000000000, 0.0000000000000000000 ) ) ;
#127 = CARTESIAN_POINT ( 'NONE',  ( 148.0685806305241100, 0.0000000000000000000, -25.39999999999993100 ) ) ;
#128 = AXIS2_PLACEMENT_3D ( 'NONE', #132, #152, #24 ) ;
#129 = PRODUCT_DEFINITION_SHAPE ( 'NONE', 'NONE',  #215 ) ;
#130 = VERTEX_POINT ( 'NONE', #193 ) ;
#131 = VERTEX_POINT ( 'NONE', #340 ) ;
#132 = CARTESIAN_POINT ( 'NONE',  ( 55.55196806823881400, 0.0000000000000000000, 2.908812823309768300E-014 ) ) ;
#133 = PRESENTATION_STYLE_ASSIGNMENT (( #281 ) ) ;
#134 = ADVANCED_FACE ( 'NONE', ( #267 ), #9, .T. ) ;
#135 = VECTOR ( 'NONE', #198, 1000.000000000000000 ) ;
#136 = PRODUCT_CONTEXT ( 'NONE', #332, 'mechanical' ) ;
#137 = EDGE_LOOP ( 'NONE', ( #161, #145, #172, #338 ) ) ;
#138 = CARTESIAN_POINT ( 'NONE',  ( 55.55196806823881400, 0.0000000000000000000, 2.908812823309768300E-014 ) ) ;
#139 = DIRECTION ( 'NONE',  ( -0.0000000000000000000, -1.000000000000000000, -0.0000000000000000000 ) ) ;
#140 = DIRECTION ( 'NONE',  ( 0.0000000000000000000, 0.0000000000000000000, 1.000000000000000000 ) ) ;
#141 = EDGE_CURVE ( 'NONE', #211, #28, #110, .T. ) ;
#142 = DIRECTION ( 'NONE',  ( -1.000000000000000000, -0.0000000000000000000, -0.0000000000000000000 ) ) ;
#143 = ORIENTED_EDGE ( 'NONE', *, *, #88, .T. ) ;
#144 = MANIFOLD_SOLID_BREP ( 'Ðý×ª2', #175 ) ;
#145 = ORIENTED_EDGE ( 'NONE', *, *, #81, .T. ) ;
#146 = ADVANCED_FACE ( 'NONE', ( #342 ), #294, .T. ) ;
#147 = CIRCLE ( 'NONE', #306, 25.39999999999991700 ) ;
#148 = CARTESIAN_POINT ( 'NONE',  ( 151.4919680682388300, 0.0000000000000000000, 2.321349753758782800E-014 ) ) ;
#149 = DIRECTION ( 'NONE',  ( 0.0000000000000000000, 0.0000000000000000000, 1.000000000000000000 ) ) ;
#150 = FACE_OUTER_BOUND ( 'NONE', #173, .T. ) ;
#151 = AXIS2_PLACEMENT_3D ( 'NONE', #107, #233, #73 ) ;
#152 = DIRECTION ( 'NONE',  ( 0.0000000000000000000, 1.000000000000000000, -0.0000000000000000000 ) ) ;
#153 = CLOSED_SHELL ( 'NONE', ( #134, #170, #299, #146, #287, #26 ) ) ;
#154 = ORIENTED_EDGE ( 'NONE', *, *, #141, .T. ) ;
#155 = CARTESIAN_POINT ( 'NONE',  ( 220.0519680682387800, 0.0000000000000000000, -6.357895833158929200E-014 ) ) ;
#156 = FACE_OUTER_BOUND ( 'NONE', #44, .T. ) ;
#157 = PRESENTATION_STYLE_ASSIGNMENT (( #230 ) ) ;
#158 = AXIS2_PLACEMENT_3D ( 'NONE', #40, #39, #14 ) ;
#159 = AXIS2_PLACEMENT_3D ( 'NONE', #47, #52, #206 ) ;
#160 = ORIENTED_EDGE ( 'NONE', *, *, #313, .T. ) ;
#161 = ORIENTED_EDGE ( 'NONE', *, *, #108, .T. ) ;
#162 = CARTESIAN_POINT ( 'NONE',  ( -0.8160621761658039000, 0.0000000000000000000, 0.0000000000000000000 ) ) ;
#163 =( GEOMETRIC_REPRESENTATION_CONTEXT ( 3 ) GLOBAL_UNCERTAINTY_ASSIGNED_CONTEXT ( ( #5 ) ) GLOBAL_UNIT_ASSIGNED_CONTEXT ( ( #43, #119, #237 ) ) REPRESENTATION_CONTEXT ( 'NONE', 'WORKASPACE' ) );
#164 = VERTEX_POINT ( 'NONE', #127 ) ;
#165 = EDGE_LOOP ( 'NONE', ( #63, #324, #46, #226 ) ) ;
#166 = CARTESIAN_POINT ( 'NONE',  ( 385.1919680682388500, 0.0000000000000000000, 0.0000000000000000000 ) ) ;
#167 = DIRECTION ( 'NONE',  ( 0.0000000000000000000, 0.0000000000000000000, -1.000000000000000000 ) ) ;
#168 = DIRECTION ( 'NONE',  ( -1.000000000000000000, -0.0000000000000000000, -0.0000000000000000000 ) ) ;
#169 = AXIS2_PLACEMENT_3D ( 'NONE', #41, #16, #89 ) ;
#170 = ADVANCED_FACE ( 'NONE', ( #156 ), #288, .T. ) ;
#171 = DIRECTION ( 'NONE',  ( 0.0000000000000000000, 0.0000000000000000000, -1.000000000000000000 ) ) ;
#172 = ORIENTED_EDGE ( 'NONE', *, *, #125, .F. ) ;
#173 = EDGE_LOOP ( 'NONE', ( #31, #343, #97 ) ) ;
#174 = PRODUCT_DEFINITION_CONTEXT ( 'detailed design', #104, 'design' ) ;
#175 = CLOSED_SHELL ( 'NONE', ( #330, #61, #261, #114, #185, #231 ) ) ;
#176 = DIRECTION ( 'NONE',  ( 0.0000000000000000000, 0.0000000000000000000, 1.000000000000000000 ) ) ;
#177 = DIRECTION ( 'NONE',  ( -1.000000000000000000, -0.0000000000000000000, -0.0000000000000000000 ) ) ;
#178 = CYLINDRICAL_SURFACE ( 'NONE', #111, 25.39999999999991700 ) ;
#179 = LINE ( 'NONE', #316, #93 ) ;
#180 = ORIENTED_EDGE ( 'NONE', *, *, #223, .F. ) ;
#181 = PRODUCT_DEFINITION_FORMATION_WITH_SPECIFIED_SOURCE ( 'ÈÎºÎ', '', #247, .NOT_KNOWN. ) ;
#182 = CARTESIAN_POINT ( 'NONE',  ( 155.8944975196085100, 0.0000000000000000000, 0.0000000000000000000 ) ) ;
#183 = ORIENTED_EDGE ( 'NONE', *, *, #313, .F. ) ;
#184 = STYLED_ITEM ( 'NONE', ( #133 ), #144 ) ;
#185 = ADVANCED_FACE ( 'NONE', ( #117 ), #212, .F. ) ;
#186 = COLOUR_RGB ( '',1.000000000000000000, 1.000000000000000000, 1.000000000000000000 ) ;
#187 = AXIS2_PLACEMENT_3D ( 'NONE', #310, #318, #312 ) ;
#188 = EDGE_LOOP ( 'NONE', ( #180, #70, #329 ) ) ;
#189 = FACE_OUTER_BOUND ( 'NONE', #192, .T. ) ;
#190 = EDGE_CURVE ( 'NONE', #124, #282, #18, .T. ) ;
#191 = CARTESIAN_POINT ( 'NONE',  ( 145.7114434534635700, 0.0000000000000000000, 0.0000000000000000000 ) ) ;
#192 = EDGE_LOOP ( 'NONE', ( #112, #7, #217, #183 ) ) ;
#193 = CARTESIAN_POINT ( 'NONE',  ( 155.8944975196085100, 0.0000000000000000000, -25.39999999999994200 ) ) ;
#194 = CIRCLE ( 'NONE', #128, 95.94000000000002600 ) ;
#195 = SPHERICAL_SURFACE ( 'NONE', #242, 95.94000000000002600 ) ;
#196 = AXIS2_PLACEMENT_3D ( 'NONE', #65, #208, #305 ) ;
#197 =( GEOMETRIC_REPRESENTATION_CONTEXT ( 3 ) GLOBAL_UNCERTAINTY_ASSIGNED_CONTEXT ( ( #227 ) ) GLOBAL_UNIT_ASSIGNED_CONTEXT ( ( #214, #109, #77 ) ) REPRESENTATION_CONTEXT ( 'NONE', 'WORKASPACE' ) );
#198 = DIRECTION ( 'NONE',  ( -1.000000000000000000, -0.0000000000000000000, -0.0000000000000000000 ) ) ;
#199 = AXIS2_PLACEMENT_3D ( 'NONE', #249, #303, #256 ) ;
#200 = DIRECTION ( 'NONE',  ( 0.0000000000000000000, 0.0000000000000000000, -1.000000000000000000 ) ) ;
#201 = DIRECTION ( 'NONE',  ( -1.000000000000000000, -0.0000000000000000000, -0.0000000000000000000 ) ) ;
#202 = CIRCLE ( 'NONE', #244, 25.39999999999997400 ) ;
#203 = FILL_AREA_STYLE_COLOUR ( '', #283 ) ;
#204 = PRESENTATION_LAYER_ASSIGNMENT (  '', '', ( #184 ) ) ;
#205 = CARTESIAN_POINT ( 'NONE',  ( 141.4919680682387800, 0.0000000000000000000, -5.876854570453847900E-014 ) ) ;
#206 = DIRECTION ( 'NONE',  ( 0.0000000000000000000, 0.0000000000000000000, 1.000000000000000000 ) ) ;
#207 = DIRECTION ( 'NONE',  ( 0.0000000000000000000, 0.0000000000000000000, 1.000000000000000000 ) ) ;
#208 = DIRECTION ( 'NONE',  ( 0.0000000000000000000, 1.000000000000000000, 0.0000000000000000000 ) ) ;
#209 = DIRECTION ( 'NONE',  ( -0.0000000000000000000, -1.000000000000000000, -0.0000000000000000000 ) ) ;
#210 = ORIENTED_EDGE ( 'NONE', *, *, #49, .F. ) ;
#211 = VERTEX_POINT ( 'NONE', #263 ) ;
#212 = SPHERICAL_SURFACE ( 'NONE', #273, 230.6999999999999900 ) ;
#213 = STYLED_ITEM ( 'NONE', ( #157 ), #64 ) ;
#214 =( LENGTH_UNIT ( ) NAMED_UNIT ( * ) SI_UNIT ( .MILLI., .METRE. ) );
#215 = PRODUCT_DEFINITION ( 'Î´Öª', '', #181, #174 ) ;
#216 = ORIENTED_EDGE ( 'NONE', *, *, #67, .T. ) ;
#217 = ORIENTED_EDGE ( 'NONE', *, *, #32, .T. ) ;
#218 = UNCERTAINTY_MEASURE_WITH_UNIT (LENGTH_MEASURE( 1.000000000000000100E-005 ), #269, 'distance_accuracy_value', 'NONE');
#219 = EDGE_CURVE ( 'NONE', #239, #131, #202, .T. ) ;
#220 = CARTESIAN_POINT ( 'NONE',  ( -0.5519199926577972300, 0.0000000000000000000, 25.39999999999991700 ) ) ;
#221 = AXIS2_PLACEMENT_3D ( 'NONE', #278, #142, #235 ) ;
#222 = DIRECTION ( 'NONE',  ( -1.000000000000000000, -0.0000000000000000000, -0.0000000000000000000 ) ) ;
#223 = EDGE_CURVE ( 'NONE', #124, #164, #194, .T. ) ;
#224 = SURFACE_STYLE_FILL_AREA ( #71 ) ;
#225 = CARTESIAN_POINT ( 'NONE',  ( 385.1919680682388500, 0.0000000000000000000, 0.0000000000000000000 ) ) ;
#226 = ORIENTED_EDGE ( 'NONE', *, *, #67, .F. ) ;
#227 = UNCERTAINTY_MEASURE_WITH_UNIT (LENGTH_MEASURE( 1.000000000000000100E-005 ), #214, 'distance_accuracy_value', 'NONE');
#228 = DIRECTION ( 'NONE',  ( 0.0000000000000000000, -1.000000000000000000, -1.224646799147353200E-016 ) ) ;
#229 = DIRECTION ( 'NONE',  ( 0.0000000000000000000, 0.0000000000000000000, 1.000000000000000000 ) ) ;
#230 = SURFACE_STYLE_USAGE ( .BOTH. , #319 ) ;
#231 = ADVANCED_FACE ( 'NONE', ( #34 ), #178, .T. ) ;
#232 = EDGE_CURVE ( 'NONE', #211, #102, #58, .T. ) ;
#233 = DIRECTION ( 'NONE',  ( 0.0000000000000000000, 0.0000000000000000000, 1.000000000000000000 ) ) ;
#234 = CIRCLE ( 'NONE', #20, 25.39999999999991700 ) ;
#235 = DIRECTION ( 'NONE',  ( 0.0000000000000000000, 0.0000000000000000000, 1.000000000000000000 ) ) ;
#236 = EDGE_LOOP ( 'NONE', ( #105, #36, #29 ) ) ;
#237 =( NAMED_UNIT ( * ) SI_UNIT ( $, .STERADIAN. ) SOLID_ANGLE_UNIT ( ) );
#238 = EDGE_CURVE ( 'NONE', #102, #28, #118, .T. ) ;
#239 = VERTEX_POINT ( 'NONE', #314 ) ;
#240 = ORIENTED_EDGE ( 'NONE', *, *, #238, .T. ) ;
#241 = EDGE_CURVE ( 'NONE', #86, #282, #74, .T. ) ;
#242 = AXIS2_PLACEMENT_3D ( 'NONE', #307, #66, #171 ) ;
#243 = DIRECTION ( 'NONE',  ( -1.000000000000000000, -0.0000000000000000000, -0.0000000000000000000 ) ) ;
#244 = AXIS2_PLACEMENT_3D ( 'NONE', #191, #201, #274 ) ;
#245 = CIRCLE ( 'NONE', #295, 230.6999999999999900 ) ;
#246 = CARTESIAN_POINT ( 'NONE',  ( -0.5519199926577972300, 0.0000000000000000000, 0.0000000000000000000 ) ) ;
#247 = PRODUCT ( '145181', '145181', '', ( #136 ) ) ;
#248 = SURFACE_STYLE_USAGE ( .BOTH. , #347 ) ;
#249 = CARTESIAN_POINT ( 'NONE',  ( 55.55196806823881400, 0.0000000000000000000, 2.908812823309768300E-014 ) ) ;
#250 = DIRECTION ( 'NONE',  ( 0.0000000000000000000, 1.224646799147353200E-016, -1.000000000000000000 ) ) ;
#251 = ORIENTED_EDGE ( 'NONE', *, *, #32, .F. ) ;
#252 = FILL_AREA_STYLE_COLOUR ( '', #186 ) ;
#253 = DIRECTION ( 'NONE',  ( 0.0000000000000000000, 0.0000000000000000000, 1.000000000000000000 ) ) ;
#254 = CIRCLE ( 'NONE', #264, 25.39999999999991700 ) ;
#255 = CARTESIAN_POINT ( 'NONE',  ( 148.0685806305241100, 0.0000000000000000000, 0.0000000000000000000 ) ) ;
#256 = DIRECTION ( 'NONE',  ( 0.0000000000000000000, -1.224646799147353200E-016, 1.000000000000000000 ) ) ;
#257 = STYLED_ITEM ( 'NONE', ( #320 ), #322 ) ;
#258 = SURFACE_STYLE_FILL_AREA ( #23 ) ;
#259 = LINE ( 'NONE', #116, #42 ) ;
#260 = FILL_AREA_STYLE ('',( #252 ) ) ;
#261 = ADVANCED_FACE ( 'NONE', ( #321 ), #53, .F. ) ;
#262 = ORIENTED_EDGE ( 'NONE', *, *, #190, .F. ) ;
#263 = CARTESIAN_POINT ( 'NONE',  ( 151.4919680682388000, 0.0000000000000000000, 3.496275892860753800E-014 ) ) ;
#264 = AXIS2_PLACEMENT_3D ( 'NONE', #182, #177, #176 ) ;
#265 =( NAMED_UNIT ( * ) PLANE_ANGLE_UNIT ( ) SI_UNIT ( $, .RADIAN. ) );
#266 = DIRECTION ( 'NONE',  ( 0.0000000000000000000, -1.224646799147353200E-016, 1.000000000000000000 ) ) ;
#267 = FACE_OUTER_BOUND ( 'NONE', #2, .T. ) ;
#268 = AXIS2_PLACEMENT_3D ( 'NONE', #335, #209, #167 ) ;
#269 =( LENGTH_UNIT ( ) NAMED_UNIT ( * ) SI_UNIT ( .MILLI., .METRE. ) );
#270 = APPLICATION_PROTOCOL_DEFINITION ( 'draft international standard', 'automotive_design', 1998, #332 ) ;
#271 = CARTESIAN_POINT ( 'NONE',  ( 148.0685806305240800, 0.0000000000000000000, 0.0000000000000000000 ) ) ;
#272 = AXIS2_PLACEMENT_3D ( 'NONE', #45, #139, #21 ) ;
#273 = AXIS2_PLACEMENT_3D ( 'NONE', #225, #302, #200 ) ;
#274 = DIRECTION ( 'NONE',  ( 0.0000000000000000000, 0.0000000000000000000, 1.000000000000000000 ) ) ;
#275 = AXIS2_PLACEMENT_3D ( 'NONE', #121, #115, #123 ) ;
#276 = SURFACE_SIDE_STYLE ('',( #78 ) ) ;
#277 = DIRECTION ( 'NONE',  ( -1.000000000000000000, -0.0000000000000000000, -0.0000000000000000000 ) ) ;
#278 = CARTESIAN_POINT ( 'NONE',  ( 148.0685806305241100, 0.0000000000000000000, 0.0000000000000000000 ) ) ;
#279 = PRESENTATION_LAYER_ASSIGNMENT (  '', '', ( #257 ) ) ;
#280 = DIRECTION ( 'NONE',  ( 0.0000000000000000000, 0.0000000000000000000, 1.000000000000000000 ) ) ;
#281 = SURFACE_STYLE_USAGE ( .BOTH. , #276 ) ;
#282 = VERTEX_POINT ( 'NONE', #304 ) ;
#283 = COLOUR_RGB ( '',1.000000000000000000, 1.000000000000000000, 1.000000000000000000 ) ;
#284 = DIRECTION ( 'NONE',  ( 0.0000000000000000000, 0.0000000000000000000, 1.000000000000000000 ) ) ;
#285 = FILL_AREA_STYLE_COLOUR ( '', #30 ) ;
#286 = DIRECTION ( 'NONE',  ( 0.0000000000000000000, 1.000000000000000000, 0.0000000000000000000 ) ) ;
#287 = ADVANCED_FACE ( 'NONE', ( #189 ), #325, .T. ) ;
#288 = CYLINDRICAL_SURFACE ( 'NONE', #187, 25.39999999999997400 ) ;
#289 = CARTESIAN_POINT ( 'NONE',  ( 155.8944975196085100, -3.110602869834270200E-015, 25.39999999999994200 ) ) ;
#290 = DIRECTION ( 'NONE',  ( 0.0000000000000000000, 1.000000000000000000, -0.0000000000000000000 ) ) ;
#291 = AXIS2_PLACEMENT_3D ( 'NONE', #166, #290, #280 ) ;
#292 = CIRCLE ( 'NONE', #317, 78.56000000000001600 ) ;
#293 = AXIS2_PLACEMENT_3D ( 'NONE', #96, #57, #250 ) ;
#294 = SPHERICAL_SURFACE ( 'NONE', #35, 78.56000000000001600 ) ;
#295 = AXIS2_PLACEMENT_3D ( 'NONE', #84, #228, #91 ) ;
#296 = EDGE_CURVE ( 'NONE', #28, #131, #339, .T. ) ;
#297 = ORIENTED_EDGE ( 'NONE', *, *, #219, .F. ) ;
#298 = MECHANICAL_DESIGN_GEOMETRIC_PRESENTATION_REPRESENTATION (  '', ( #257 ), #197 ) ;
#299 = ADVANCED_FACE ( 'NONE', ( #90 ), #13, .T. ) ;
#300 = VECTOR ( 'NONE', #222, 1000.000000000000000 ) ;
#301 = CIRCLE ( 'NONE', #275, 78.56000000000001600 ) ;
#302 = DIRECTION ( 'NONE',  ( -0.0000000000000000000, -1.000000000000000000, -0.0000000000000000000 ) ) ;
#303 = DIRECTION ( 'NONE',  ( -0.0000000000000000000, 1.000000000000000000, 1.224646799147353200E-016 ) ) ;
#304 = CARTESIAN_POINT ( 'NONE',  ( 148.0685806305241100, -3.110602869834267800E-015, 25.39999999999995600 ) ) ;
#305 = DIRECTION ( 'NONE',  ( 0.0000000000000000000, 0.0000000000000000000, 1.000000000000000000 ) ) ;
#306 = AXIS2_PLACEMENT_3D ( 'NONE', #126, #68, #229 ) ;
#307 = CARTESIAN_POINT ( 'NONE',  ( 55.55196806823881400, 0.0000000000000000000, 2.908812823309768300E-014 ) ) ;
#308 =( NAMED_UNIT ( * ) SI_UNIT ( $, .STERADIAN. ) SOLID_ANGLE_UNIT ( ) );
#309 = AXIS2_PLACEMENT_3D ( 'NONE', #138, #326, #27 ) ;
#310 = CARTESIAN_POINT ( 'NONE',  ( -0.8160621761658039000, 0.0000000000000000000, 0.0000000000000000000 ) ) ;
#311 = CARTESIAN_POINT ( 'NONE',  ( -0.8160621761658039000, 3.110602869834274100E-015, -25.39999999999997400 ) ) ;
#312 = DIRECTION ( 'NONE',  ( 0.0000000000000000000, 0.0000000000000000000, 1.000000000000000000 ) ) ;
#313 = EDGE_CURVE ( 'NONE', #131, #239, #48, .T. ) ;
#314 = CARTESIAN_POINT ( 'NONE',  ( 145.7114434534635700, 0.0000000000000000000, 25.39999999999997700 ) ) ;
#315 = DIRECTION ( 'NONE',  ( -1.000000000000000000, -0.0000000000000000000, -0.0000000000000000000 ) ) ;
#316 = CARTESIAN_POINT ( 'NONE',  ( -0.8160621761658039000, 0.0000000000000000000, 25.39999999999997400 ) ) ;
#317 = AXIS2_PLACEMENT_3D ( 'NONE', #155, #60, #266 ) ;
#318 = DIRECTION ( 'NONE',  ( -1.000000000000000000, -0.0000000000000000000, -0.0000000000000000000 ) ) ;
#319 = SURFACE_SIDE_STYLE ('',( #224 ) ) ;
#320 = PRESENTATION_STYLE_ASSIGNMENT (( #248 ) ) ;
#321 = FACE_OUTER_BOUND ( 'NONE', #188, .T. ) ;
#322 = ADVANCED_BREP_SHAPE_REPRESENTATION ( '145181', ( #64, #144, #151 ), #92 ) ;
#323 = CIRCLE ( 'NONE', #291, 230.6999999999999900 ) ;
#324 = ORIENTED_EDGE ( 'NONE', *, *, #54, .T. ) ;
#325 = CYLINDRICAL_SURFACE ( 'NONE', #337, 25.39999999999997400 ) ;
#326 = DIRECTION ( 'NONE',  ( 0.0000000000000000000, -1.000000000000000000, 0.0000000000000000000 ) ) ;
#327 = AXIS2_PLACEMENT_3D ( 'NONE', #346, #99, #149 ) ;
#328 = CIRCLE ( 'NONE', #158, 25.39999999999997400 ) ;
#329 = ORIENTED_EDGE ( 'NONE', *, *, #125, .T. ) ;
#330 = ADVANCED_FACE ( 'NONE', ( #3 ), #95, .T. ) ;
#331 = MECHANICAL_DESIGN_GEOMETRIC_PRESENTATION_REPRESENTATION (  '', ( #184 ), #75 ) ;
#332 = APPLICATION_CONTEXT ( 'automotive_design' ) ;
#333 = SPHERICAL_SURFACE ( 'NONE', #327, 95.93999999999999800 ) ;
#334 = EDGE_CURVE ( 'NONE', #131, #120, #292, .T. ) ;
#335 = CARTESIAN_POINT ( 'NONE',  ( 55.55196806823881400, 0.0000000000000000000, 2.908812823309768300E-014 ) ) ;
#336 = CARTESIAN_POINT ( 'NONE',  ( 220.0519680682387800, 0.0000000000000000000, -6.357895833158929200E-014 ) ) ;
#337 = AXIS2_PLACEMENT_3D ( 'NONE', #162, #277, #140 ) ;
#338 = ORIENTED_EDGE ( 'NONE', *, *, #241, .F. ) ;
#339 = LINE ( 'NONE', #311, #300 ) ;
#340 = CARTESIAN_POINT ( 'NONE',  ( 145.7114434534635700, 3.110602869834274900E-015, -25.40000000000004100 ) ) ;
#341 = SPHERICAL_SURFACE ( 'NONE', #272, 230.6999999999999900 ) ;
#342 = FACE_OUTER_BOUND ( 'NONE', #82, .T. ) ;
#343 = ORIENTED_EDGE ( 'NONE', *, *, #232, .T. ) ;
#344 =( NAMED_UNIT ( * ) PLANE_ANGLE_UNIT ( ) SI_UNIT ( $, .RADIAN. ) );
#345 = PRESENTATION_LAYER_ASSIGNMENT (  '', '', ( #213 ) ) ;
#346 = CARTESIAN_POINT ( 'NONE',  ( 55.55196806823881400, 0.0000000000000000000, 2.908812823309768300E-014 ) ) ;
#347 = SURFACE_SIDE_STYLE ('',( #258 ) ) ;
ENDSEC;
END-ISO-10303-21;
