ISO-10303-21;
HEADER;
FILE_DESCRIPTION (( 'STEP AP214' ),
    '1' );
FILE_NAME ('145180.STEP',
    '2019-06-13T01:46:00',
    ( 'user' ),
    ( 'Î¢ÈíÖÐ¹ú' ),
    'SwSTEP 2.0',
    'SolidWorks 2016',
    '' );
FILE_SCHEMA (( 'AUTOMOTIVE_DESIGN' ));
ENDSEC;

DATA;
#1 = VERTEX_POINT ( 'NONE', #307 ) ;
#2 = ORIENTED_EDGE ( 'NONE', *, *, #65, .T. ) ;
#3 = SPHERICAL_SURFACE ( 'NONE', #298, 87.56999999999997900 ) ;
#4 = ORIENTED_EDGE ( 'NONE', *, *, #101, .T. ) ;
#5 = CARTESIAN_POINT ( 'NONE',  ( 141.9194671132469000, 0.0000000000000000000, 25.39999999999997700 ) ) ;
#6 = ORIENTED_EDGE ( 'NONE', *, *, #274, .F. ) ;
#7 = ADVANCED_FACE ( 'NONE', ( #250 ), #277, .T. ) ;
#8 = DIRECTION ( 'NONE',  ( 0.0000000000000000000, 0.0000000000000000000, 1.000000000000000000 ) ) ;
#9 = DIRECTION ( 'NONE',  ( 0.0000000000000000000, 1.000000000000000000, 0.0000000000000000000 ) ) ;
#10 = DIRECTION ( 'NONE',  ( -1.000000000000000000, -0.0000000000000000000, -0.0000000000000000000 ) ) ;
#11 =( NAMED_UNIT ( * ) SI_UNIT ( $, .STERADIAN. ) SOLID_ANGLE_UNIT ( ) );
#12 = DIRECTION ( 'NONE',  ( 0.0000000000000000000, 0.0000000000000000000, 1.000000000000000000 ) ) ;
#13 = EDGE_LOOP ( 'NONE', ( #161, #221, #206 ) ) ;
#14 = PRODUCT_RELATED_PRODUCT_CATEGORY ( 'part', '', ( #233 ) ) ;
#15 = AXIS2_PLACEMENT_3D ( 'NONE', #39, #311, #192 ) ;
#16 = SURFACE_SIDE_STYLE ('',( #18 ) ) ;
#17 = CARTESIAN_POINT ( 'NONE',  ( 61.35944378259088700, 0.0000000000000000000, 1.934033328962417500E-014 ) ) ;
#18 = SURFACE_STYLE_FILL_AREA ( #183 ) ;
#19 =( LENGTH_UNIT ( ) NAMED_UNIT ( * ) SI_UNIT ( .MILLI., .METRE. ) );
#20 = APPLICATION_CONTEXT ( 'automotive_design' ) ;
#21 = VERTEX_POINT ( 'NONE', #225 ) ;
#22 = FILL_AREA_STYLE ('',( #331 ) ) ;
#23 = ORIENTED_EDGE ( 'NONE', *, *, #266, .F. ) ;
#24 = CIRCLE ( 'NONE', #286, 25.39999999999997000 ) ;
#25 = ORIENTED_EDGE ( 'NONE', *, *, #111, .T. ) ;
#26 = FACE_OUTER_BOUND ( 'NONE', #117, .T. ) ;
#27 = ORIENTED_EDGE ( 'NONE', *, *, #251, .T. ) ;
#28 = EDGE_CURVE ( 'NONE', #69, #291, #181, .T. ) ;
#29 = AXIS2_PLACEMENT_3D ( 'NONE', #125, #10, #86 ) ;
#30 = LINE ( 'NONE', #306, #169 ) ;
#31 = PRODUCT_DEFINITION_SHAPE ( 'NONE', 'NONE',  #321 ) ;
#32 = PRESENTATION_STYLE_ASSIGNMENT (( #341 ) ) ;
#33 = AXIS2_PLACEMENT_3D ( 'NONE', #124, #9, #8 ) ;
#34 = CIRCLE ( 'NONE', #130, 67.14000000000000100 ) ;
#35 = EDGE_LOOP ( 'NONE', ( #51, #25, #23, #186 ) ) ;
#36 = ADVANCED_FACE ( 'NONE', ( #261 ), #231, .T. ) ;
#37 = DIRECTION ( 'NONE',  ( 0.0000000000000000000, 0.0000000000000000000, 1.000000000000000000 ) ) ;
#38 = ORIENTED_EDGE ( 'NONE', *, *, #60, .T. ) ;
#39 = CARTESIAN_POINT ( 'NONE',  ( -0.5519199926577972300, 0.0000000000000000000, 0.0000000000000000000 ) ) ;
#40 =( NAMED_UNIT ( * ) SI_UNIT ( $, .STERADIAN. ) SOLID_ANGLE_UNIT ( ) );
#41 = CARTESIAN_POINT ( 'NONE',  ( 61.35944378259088700, 0.0000000000000000000, 1.934033328962417500E-014 ) ) ;
#42 = DIRECTION ( 'NONE',  ( 0.0000000000000000000, 0.0000000000000000000, -1.000000000000000000 ) ) ;
#43 = ORIENTED_EDGE ( 'NONE', *, *, #28, .T. ) ;
#44 = CARTESIAN_POINT ( 'NONE',  ( 153.3104725967487200, -3.110602869834272500E-015, 25.39999999999995900 ) ) ;
#45 = VERTEX_POINT ( 'NONE', #187 ) ;
#46 = DIRECTION ( 'NONE',  ( -0.0000000000000000000, 1.000000000000000000, 1.224646799147353200E-016 ) ) ;
#47 = AXIS2_PLACEMENT_3D ( 'NONE', #203, #300, #327 ) ;
#48 = FACE_OUTER_BOUND ( 'NONE', #211, .T. ) ;
#49 = AXIS2_PLACEMENT_3D ( 'NONE', #123, #328, #241 ) ;
#50 = EDGE_CURVE ( 'NONE', #268, #291, #30, .T. ) ;
#51 = ORIENTED_EDGE ( 'NONE', *, *, #229, .T. ) ;
#52 = EDGE_CURVE ( 'NONE', #69, #155, #143, .T. ) ;
#53 = LINE ( 'NONE', #154, #193 ) ;
#54 = ORIENTED_EDGE ( 'NONE', *, *, #297, .T. ) ;
#55 = VECTOR ( 'NONE', #58, 1000.000000000000000 ) ;
#56 = ADVANCED_FACE ( 'NONE', ( #303 ), #314, .T. ) ;
#57 = CARTESIAN_POINT ( 'NONE',  ( 61.35944378259088700, 0.0000000000000000000, 1.934033328962417500E-014 ) ) ;
#58 = DIRECTION ( 'NONE',  ( -1.000000000000000000, -0.0000000000000000000, -0.0000000000000000000 ) ) ;
#59 = DIRECTION ( 'NONE',  ( 0.0000000000000000000, 0.0000000000000000000, -1.000000000000000000 ) ) ;
#60 = EDGE_CURVE ( 'NONE', #234, #337, #24, .T. ) ;
#61 = CARTESIAN_POINT ( 'NONE',  ( 145.1648427733480600, 3.110602869834274100E-015, -25.39999999999997000 ) ) ;
#62 =( NAMED_UNIT ( * ) SI_UNIT ( $, .STERADIAN. ) SOLID_ANGLE_UNIT ( ) );
#63 = CARTESIAN_POINT ( 'NONE',  ( 61.35944378259088700, 0.0000000000000000000, 1.934033328962417500E-014 ) ) ;
#64 = ORIENTED_EDGE ( 'NONE', *, *, #50, .F. ) ;
#65 = EDGE_CURVE ( 'NONE', #219, #235, #102, .T. ) ;
#66 = CARTESIAN_POINT ( 'NONE',  ( 386.1994437825908300, 0.0000000000000000000, 0.0000000000000000000 ) ) ;
#67 = AXIS2_PLACEMENT_3D ( 'NONE', #318, #333, #37 ) ;
#68 = DIRECTION ( 'NONE',  ( -0.0000000000000000000, 1.000000000000000000, 1.224646799147353200E-016 ) ) ;
#69 = VERTEX_POINT ( 'NONE', #91 ) ;
#70 = ORIENTED_EDGE ( 'NONE', *, *, #168, .T. ) ;
#71 = AXIS2_PLACEMENT_3D ( 'NONE', #41, #72, #105 ) ;
#72 = DIRECTION ( 'NONE',  ( 0.0000000000000000000, -1.000000000000000000, 0.0000000000000000000 ) ) ;
#73 = ADVANCED_BREP_SHAPE_REPRESENTATION ( '145180', ( #119, #165, #304 ), #162 ) ;
#74 = MECHANICAL_DESIGN_GEOMETRIC_PRESENTATION_REPRESENTATION (  '', ( #132 ), #90 ) ;
#75 = CARTESIAN_POINT ( 'NONE',  ( 153.3104725967487000, 0.0000000000000000000, 0.0000000000000000000 ) ) ;
#76 = EDGE_LOOP ( 'NONE', ( #313, #43, #215 ) ) ;
#77 = DIRECTION ( 'NONE',  ( -1.000000000000000000, -0.0000000000000000000, -0.0000000000000000000 ) ) ;
#78 = ORIENTED_EDGE ( 'NONE', *, *, #290, .F. ) ;
#79 =( NAMED_UNIT ( * ) PLANE_ANGLE_UNIT ( ) SI_UNIT ( $, .RADIAN. ) );
#80 = LINE ( 'NONE', #159, #55 ) ;
#81 = PRESENTATION_STYLE_ASSIGNMENT (( #264 ) ) ;
#82 = EDGE_CURVE ( 'NONE', #1, #337, #292, .T. ) ;
#83 = CARTESIAN_POINT ( 'NONE',  ( 145.1648427733480600, 0.0000000000000000000, 25.39999999999997000 ) ) ;
#84 = AXIS2_PLACEMENT_3D ( 'NONE', #126, #98, #272 ) ;
#85 = SPHERICAL_SURFACE ( 'NONE', #114, 87.56999999999999300 ) ;
#86 = DIRECTION ( 'NONE',  ( 0.0000000000000000000, 0.0000000000000000000, 1.000000000000000000 ) ) ;
#87 = AXIS2_PLACEMENT_3D ( 'NONE', #103, #68, #343 ) ;
#88 = DIRECTION ( 'NONE',  ( 0.0000000000000000000, 1.000000000000000000, 0.0000000000000000000 ) ) ;
#89 = ADVANCED_FACE ( 'NONE', ( #222 ), #85, .T. ) ;
#90 =( GEOMETRIC_REPRESENTATION_CONTEXT ( 3 ) GLOBAL_UNCERTAINTY_ASSIGNED_CONTEXT ( ( #287 ) ) GLOBAL_UNIT_ASSIGNED_CONTEXT ( ( #112, #256, #62 ) ) REPRESENTATION_CONTEXT ( 'NONE', 'WORKASPACE' ) );
#91 = CARTESIAN_POINT ( 'NONE',  ( 148.9294437825908800, 0.0000000000000000000, 1.397821727955749300E-014 ) ) ;
#92 = FACE_OUTER_BOUND ( 'NONE', #76, .T. ) ;
#93 = ORIENTED_EDGE ( 'NONE', *, *, #290, .T. ) ;
#94 = ORIENTED_EDGE ( 'NONE', *, *, #168, .F. ) ;
#95 = DIRECTION ( 'NONE',  ( 0.0000000000000000000, 0.0000000000000000000, 1.000000000000000000 ) ) ;
#96 = DIRECTION ( 'NONE',  ( -1.000000000000000000, -0.0000000000000000000, -0.0000000000000000000 ) ) ;
#97 = DIRECTION ( 'NONE',  ( -1.000000000000000000, -0.0000000000000000000, -0.0000000000000000000 ) ) ;
#98 = DIRECTION ( 'NONE',  ( 0.0000000000000000000, 1.000000000000000000, -0.0000000000000000000 ) ) ;
#99 = DIRECTION ( 'NONE',  ( -0.0000000000000000000, -1.000000000000000000, -0.0000000000000000000 ) ) ;
#100 = CARTESIAN_POINT ( 'NONE',  ( 153.3104725967487000, 0.0000000000000000000, 0.0000000000000000000 ) ) ;
#101 = EDGE_CURVE ( 'NONE', #1, #234, #164, .T. ) ;
#102 = CIRCLE ( 'NONE', #49, 25.39999999999997700 ) ;
#103 = CARTESIAN_POINT ( 'NONE',  ( 61.35944378259088700, 0.0000000000000000000, 1.934033328962417500E-014 ) ) ;
#104 = COLOUR_RGB ( '',1.000000000000000000, 1.000000000000000000, 1.000000000000000000 ) ;
#105 = DIRECTION ( 'NONE',  ( 0.0000000000000000000, 0.0000000000000000000, -1.000000000000000000 ) ) ;
#106 = APPLICATION_PROTOCOL_DEFINITION ( 'draft international standard', 'automotive_design', 1998, #280 ) ;
#107 = ORIENTED_EDGE ( 'NONE', *, *, #297, .F. ) ;
#108 = ORIENTED_EDGE ( 'NONE', *, *, #82, .F. ) ;
#109 = DIRECTION ( 'NONE',  ( 0.0000000000000000000, 1.000000000000000000, 0.0000000000000000000 ) ) ;
#110 = DIRECTION ( 'NONE',  ( 0.0000000000000000000, 0.0000000000000000000, 1.000000000000000000 ) ) ;
#111 = EDGE_CURVE ( 'NONE', #234, #219, #216, .T. ) ;
#112 =( LENGTH_UNIT ( ) NAMED_UNIT ( * ) SI_UNIT ( .MILLI., .METRE. ) );
#113 = AXIS2_PLACEMENT_3D ( 'NONE', #218, #99, #59 ) ;
#114 = AXIS2_PLACEMENT_3D ( 'NONE', #57, #88, #226 ) ;
#115 = DIRECTION ( 'NONE',  ( -1.000000000000000000, -0.0000000000000000000, -0.0000000000000000000 ) ) ;
#116 = AXIS2_PLACEMENT_3D ( 'NONE', #100, #279, #329 ) ;
#117 = EDGE_LOOP ( 'NONE', ( #191, #237, #175 ) ) ;
#118 = EDGE_CURVE ( 'NONE', #337, #235, #80, .T. ) ;
#119 = MANIFOLD_SOLID_BREP ( 'Ðý×ª1', #302 ) ;
#120 = ORIENTED_EDGE ( 'NONE', *, *, #118, .T. ) ;
#121 = COLOUR_RGB ( '',1.000000000000000000, 1.000000000000000000, 1.000000000000000000 ) ;
#122 = ADVANCED_FACE ( 'NONE', ( #338 ), #166, .T. ) ;
#123 = CARTESIAN_POINT ( 'NONE',  ( 141.9194671132469000, 0.0000000000000000000, 0.0000000000000000000 ) ) ;
#124 = CARTESIAN_POINT ( 'NONE',  ( 61.35944378259088700, 0.0000000000000000000, 1.934033328962417500E-014 ) ) ;
#125 = CARTESIAN_POINT ( 'NONE',  ( 145.1648427733480300, 0.0000000000000000000, 0.0000000000000000000 ) ) ;
#126 = CARTESIAN_POINT ( 'NONE',  ( 386.1994437825908300, 0.0000000000000000000, 0.0000000000000000000 ) ) ;
#127 = EDGE_CURVE ( 'NONE', #219, #21, #319, .T. ) ;
#128 = FACE_OUTER_BOUND ( 'NONE', #13, .T. ) ;
#129 = DIRECTION ( 'NONE',  ( 0.0000000000000000000, 0.0000000000000000000, 1.000000000000000000 ) ) ;
#130 = AXIS2_PLACEMENT_3D ( 'NONE', #236, #224, #42 ) ;
#131 = CARTESIAN_POINT ( 'NONE',  ( 204.0694437825908700, 0.0000000000000000000, -5.542687920448698100E-014 ) ) ;
#132 = STYLED_ITEM ( 'NONE', ( #198 ), #119 ) ;
#133 = DIRECTION ( 'NONE',  ( 0.0000000000000000000, 0.0000000000000000000, 1.000000000000000000 ) ) ;
#134 = CIRCLE ( 'NONE', #29, 25.39999999999994200 ) ;
#135 = COLOUR_RGB ( '',1.000000000000000000, 1.000000000000000000, 1.000000000000000000 ) ;
#136 = DIRECTION ( 'NONE',  ( 0.0000000000000000000, 0.0000000000000000000, 1.000000000000000000 ) ) ;
#137 = AXIS2_PLACEMENT_3D ( 'NONE', #131, #46, #209 ) ;
#138 = FILL_AREA_STYLE ('',( #245 ) ) ;
#139 = DIRECTION ( 'NONE',  ( 0.0000000000000000000, 0.0000000000000000000, 1.000000000000000000 ) ) ;
#140 =( NAMED_UNIT ( * ) SI_UNIT ( $, .STERADIAN. ) SOLID_ANGLE_UNIT ( ) );
#141 = CIRCLE ( 'NONE', #47, 234.2700000000000400 ) ;
#142 = VERTEX_POINT ( 'NONE', #44 ) ;
#143 = CIRCLE ( 'NONE', #346, 87.56999999999997900 ) ;
#144 = UNCERTAINTY_MEASURE_WITH_UNIT (LENGTH_MEASURE( 1.000000000000000100E-005 ), #255, 'distance_accuracy_value', 'NONE');
#145 = UNCERTAINTY_MEASURE_WITH_UNIT (LENGTH_MEASURE( 1.000000000000000100E-005 ), #19, 'distance_accuracy_value', 'NONE');
#146 = EDGE_CURVE ( 'NONE', #268, #142, #263, .T. ) ;
#147 = AXIS2_PLACEMENT_3D ( 'NONE', #63, #220, #213 ) ;
#148 = FACE_OUTER_BOUND ( 'NONE', #35, .T. ) ;
#149 = PRESENTATION_LAYER_ASSIGNMENT (  '', '', ( #132 ) ) ;
#150 = DIRECTION ( 'NONE',  ( -1.000000000000000000, -0.0000000000000000000, -0.0000000000000000000 ) ) ;
#151 = AXIS2_PLACEMENT_3D ( 'NONE', #301, #97, #129 ) ;
#152 = ADVANCED_FACE ( 'NONE', ( #128 ), #196, .F. ) ;
#153 = FACE_OUTER_BOUND ( 'NONE', #282, .T. ) ;
#154 = CARTESIAN_POINT ( 'NONE',  ( -0.5519199926577972300, 0.0000000000000000000, 25.39999999999994200 ) ) ;
#155 = VERTEX_POINT ( 'NONE', #248 ) ;
#156 = ORIENTED_EDGE ( 'NONE', *, *, #127, .T. ) ;
#157 = DIRECTION ( 'NONE',  ( -1.000000000000000000, -0.0000000000000000000, -0.0000000000000000000 ) ) ;
#158 = DIRECTION ( 'NONE',  ( 1.000000000000000000, 0.0000000000000000000, 0.0000000000000000000 ) ) ;
#159 = CARTESIAN_POINT ( 'NONE',  ( -0.8160621761658039000, 0.0000000000000000000, 25.39999999999997400 ) ) ;
#160 = SPHERICAL_SURFACE ( 'NONE', #281, 67.14000000000000100 ) ;
#161 = ORIENTED_EDGE ( 'NONE', *, *, #251, .F. ) ;
#162 =( GEOMETRIC_REPRESENTATION_CONTEXT ( 3 ) GLOBAL_UNCERTAINTY_ASSIGNED_CONTEXT ( ( #239 ) ) GLOBAL_UNIT_ASSIGNED_CONTEXT ( ( #335, #79, #140 ) ) REPRESENTATION_CONTEXT ( 'NONE', 'WORKASPACE' ) );
#163 = ORIENTED_EDGE ( 'NONE', *, *, #101, .F. ) ;
#164 = CIRCLE ( 'NONE', #87, 87.56999999999999300 ) ;
#165 = MANIFOLD_SOLID_BREP ( 'Ðý×ª2', #238 ) ;
#166 = CYLINDRICAL_SURFACE ( 'NONE', #151, 25.39999999999994200 ) ;
#167 = STYLED_ITEM ( 'NONE', ( #32 ), #165 ) ;
#168 = EDGE_CURVE ( 'NONE', #142, #268, #195, .T. ) ;
#169 = VECTOR ( 'NONE', #176, 1000.000000000000000 ) ;
#170 = DIRECTION ( 'NONE',  ( 0.0000000000000000000, 0.0000000000000000000, -1.000000000000000000 ) ) ;
#171 = CARTESIAN_POINT ( 'NONE',  ( 61.35944378259088700, 0.0000000000000000000, 1.934033328962417500E-014 ) ) ;
#172 = CIRCLE ( 'NONE', #84, 234.2700000000000400 ) ;
#173 = ORIENTED_EDGE ( 'NONE', *, *, #127, .F. ) ;
#174 = ADVANCED_FACE ( 'NONE', ( #48 ), #160, .T. ) ;
#175 = ORIENTED_EDGE ( 'NONE', *, *, #232, .T. ) ;
#176 = DIRECTION ( 'NONE',  ( -1.000000000000000000, -0.0000000000000000000, -0.0000000000000000000 ) ) ;
#177 = DIRECTION ( 'NONE',  ( -1.000000000000000000, -0.0000000000000000000, -0.0000000000000000000 ) ) ;
#178 = SURFACE_SIDE_STYLE ('',( #258 ) ) ;
#179 = DIRECTION ( 'NONE',  ( -1.000000000000000000, -0.0000000000000000000, -0.0000000000000000000 ) ) ;
#180 = ORIENTED_EDGE ( 'NONE', *, *, #50, .T. ) ;
#181 = CIRCLE ( 'NONE', #305, 87.56999999999997900 ) ;
#182 = AXIS2_PLACEMENT_3D ( 'NONE', #334, #157, #12 ) ;
#183 = FILL_AREA_STYLE ('',( #315 ) ) ;
#184 = CARTESIAN_POINT ( 'NONE',  ( -0.8160621761658039000, 0.0000000000000000000, 0.0000000000000000000 ) ) ;
#185 = SPHERICAL_SURFACE ( 'NONE', #147, 87.56999999999997900 ) ;
#186 = ORIENTED_EDGE ( 'NONE', *, *, #118, .F. ) ;
#187 = CARTESIAN_POINT ( 'NONE',  ( 151.9294437825908200, 0.0000000000000000000, -1.434490028181252500E-014 ) ) ;
#188 = DIRECTION ( 'NONE',  ( 0.0000000000000000000, 0.0000000000000000000, 1.000000000000000000 ) ) ;
#189 = AXIS2_PLACEMENT_3D ( 'NONE', #66, #190, #204 ) ;
#190 = DIRECTION ( 'NONE',  ( -0.0000000000000000000, -1.000000000000000000, -0.0000000000000000000 ) ) ;
#191 = ORIENTED_EDGE ( 'NONE', *, *, #28, .F. ) ;
#192 = DIRECTION ( 'NONE',  ( 0.0000000000000000000, 0.0000000000000000000, 1.000000000000000000 ) ) ;
#193 = VECTOR ( 'NONE', #177, 1000.000000000000000 ) ;
#194 = ORIENTED_EDGE ( 'NONE', *, *, #65, .F. ) ;
#195 = CIRCLE ( 'NONE', #244, 25.39999999999994200 ) ;
#196 = SPHERICAL_SURFACE ( 'NONE', #189, 234.2700000000000400 ) ;
#197 = AXIS2_PLACEMENT_3D ( 'NONE', #184, #115, #340 ) ;
#198 = PRESENTATION_STYLE_ASSIGNMENT (( #283 ) ) ;
#199 = ADVANCED_FACE ( 'NONE', ( #26 ), #3, .F. ) ;
#200 = DIRECTION ( 'NONE',  ( 0.0000000000000000000, 1.224646799147353200E-016, -1.000000000000000000 ) ) ;
#201 = PRESENTATION_LAYER_ASSIGNMENT (  '', '', ( #167 ) ) ;
#202 =( NAMED_UNIT ( * ) PLANE_ANGLE_UNIT ( ) SI_UNIT ( $, .RADIAN. ) );
#203 = CARTESIAN_POINT ( 'NONE',  ( 386.1994437825908300, 0.0000000000000000000, 0.0000000000000000000 ) ) ;
#204 = DIRECTION ( 'NONE',  ( 0.0000000000000000000, 0.0000000000000000000, -1.000000000000000000 ) ) ;
#205 =( NAMED_UNIT ( * ) PLANE_ANGLE_UNIT ( ) SI_UNIT ( $, .RADIAN. ) );
#206 = ORIENTED_EDGE ( 'NONE', *, *, #274, .T. ) ;
#207 = APPLICATION_PROTOCOL_DEFINITION ( 'draft international standard', 'automotive_design', 1998, #20 ) ;
#208 = DIRECTION ( 'NONE',  ( 0.0000000000000000000, 1.000000000000000000, -0.0000000000000000000 ) ) ;
#209 = DIRECTION ( 'NONE',  ( 0.0000000000000000000, -1.224646799147353200E-016, 1.000000000000000000 ) ) ;
#210 = FACE_OUTER_BOUND ( 'NONE', #289, .T. ) ;
#211 = EDGE_LOOP ( 'NONE', ( #173, #2, #54 ) ) ;
#212 = EDGE_LOOP ( 'NONE', ( #70, #180, #294, #78 ) ) ;
#213 = DIRECTION ( 'NONE',  ( 0.0000000000000000000, 0.0000000000000000000, -1.000000000000000000 ) ) ;
#214 = MECHANICAL_DESIGN_GEOMETRIC_PRESENTATION_REPRESENTATION (  '', ( #167 ), #228 ) ;
#215 = ORIENTED_EDGE ( 'NONE', *, *, #332, .T. ) ;
#216 = LINE ( 'NONE', #252, #269 ) ;
#217 = ADVANCED_FACE ( 'NONE', ( #153 ), #310, .T. ) ;
#218 = CARTESIAN_POINT ( 'NONE',  ( 386.1994437825908300, 0.0000000000000000000, 0.0000000000000000000 ) ) ;
#219 = VERTEX_POINT ( 'NONE', #330 ) ;
#220 = DIRECTION ( 'NONE',  ( -0.0000000000000000000, -1.000000000000000000, -0.0000000000000000000 ) ) ;
#221 = ORIENTED_EDGE ( 'NONE', *, *, #146, .F. ) ;
#222 = FACE_OUTER_BOUND ( 'NONE', #249, .T. ) ;
#223 = STYLED_ITEM ( 'NONE', ( #81 ), #73 ) ;
#224 = DIRECTION ( 'NONE',  ( 0.0000000000000000000, -1.000000000000000000, 0.0000000000000000000 ) ) ;
#225 = CARTESIAN_POINT ( 'NONE',  ( 136.9294437825908500, 0.0000000000000000000, -5.131573989974931500E-014 ) ) ;
#226 = DIRECTION ( 'NONE',  ( 0.0000000000000000000, 0.0000000000000000000, 1.000000000000000000 ) ) ;
#227 = ORIENTED_EDGE ( 'NONE', *, *, #266, .T. ) ;
#228 =( GEOMETRIC_REPRESENTATION_CONTEXT ( 3 ) GLOBAL_UNCERTAINTY_ASSIGNED_CONTEXT ( ( #145 ) ) GLOBAL_UNIT_ASSIGNED_CONTEXT ( ( #19, #202, #11 ) ) REPRESENTATION_CONTEXT ( 'NONE', 'WORKASPACE' ) );
#229 = EDGE_CURVE ( 'NONE', #337, #234, #295, .T. ) ;
#230 = EDGE_LOOP ( 'NONE', ( #64, #284, #93, #257 ) ) ;
#231 = CYLINDRICAL_SURFACE ( 'NONE', #15, 25.39999999999994200 ) ;
#232 = EDGE_CURVE ( 'NONE', #155, #291, #134, .T. ) ;
#233 = PRODUCT ( '145180', '145180', '', ( #342 ) ) ;
#234 = VERTEX_POINT ( 'NONE', #61 ) ;
#235 = VERTEX_POINT ( 'NONE', #5 ) ;
#236 = CARTESIAN_POINT ( 'NONE',  ( 204.0694437825908700, 0.0000000000000000000, -5.542687920448698100E-014 ) ) ;
#237 = ORIENTED_EDGE ( 'NONE', *, *, #52, .T. ) ;
#238 = CLOSED_SHELL ( 'NONE', ( #122, #270, #199, #293, #152, #36 ) ) ;
#239 = UNCERTAINTY_MEASURE_WITH_UNIT (LENGTH_MEASURE( 1.000000000000000100E-005 ), #335, 'distance_accuracy_value', 'NONE');
#240 = PRESENTATION_LAYER_ASSIGNMENT (  '', '', ( #223 ) ) ;
#241 = DIRECTION ( 'NONE',  ( 0.0000000000000000000, 0.0000000000000000000, 1.000000000000000000 ) ) ;
#242 = CIRCLE ( 'NONE', #182, 25.39999999999994200 ) ;
#243 = CARTESIAN_POINT ( 'NONE',  ( 145.1648427733480600, 0.0000000000000000000, 0.0000000000000000000 ) ) ;
#244 = AXIS2_PLACEMENT_3D ( 'NONE', #75, #179, #133 ) ;
#245 = FILL_AREA_STYLE_COLOUR ( '', #135 ) ;
#246 = CARTESIAN_POINT ( 'NONE',  ( 145.1648427733480300, 0.0000000000000000000, -25.39999999999994200 ) ) ;
#247 = CARTESIAN_POINT ( 'NONE',  ( 204.0694437825908700, 0.0000000000000000000, -5.542687920448698100E-014 ) ) ;
#248 = CARTESIAN_POINT ( 'NONE',  ( 145.1648427733480300, -3.110602869834270200E-015, 25.39999999999996300 ) ) ;
#249 = EDGE_LOOP ( 'NONE', ( #108, #4, #344 ) ) ;
#250 = FACE_OUTER_BOUND ( 'NONE', #260, .T. ) ;
#251 = EDGE_CURVE ( 'NONE', #142, #45, #141, .T. ) ;
#252 = CARTESIAN_POINT ( 'NONE',  ( -0.8160621761658039000, 3.110602869834274100E-015, -25.39999999999997400 ) ) ;
#253 = CIRCLE ( 'NONE', #67, 25.39999999999997700 ) ;
#254 = CARTESIAN_POINT ( 'NONE',  ( -0.8160621761658039000, 0.0000000000000000000, 0.0000000000000000000 ) ) ;
#255 =( LENGTH_UNIT ( ) NAMED_UNIT ( * ) SI_UNIT ( .MILLI., .METRE. ) );
#256 =( NAMED_UNIT ( * ) PLANE_ANGLE_UNIT ( ) SI_UNIT ( $, .RADIAN. ) );
#257 = ORIENTED_EDGE ( 'NONE', *, *, #332, .F. ) ;
#258 = SURFACE_STYLE_FILL_AREA ( #22 ) ;
#259 = MECHANICAL_DESIGN_GEOMETRIC_PRESENTATION_REPRESENTATION (  '', ( #223 ), #276 ) ;
#260 = EDGE_LOOP ( 'NONE', ( #296, #38, #120, #194 ) ) ;
#261 = FACE_OUTER_BOUND ( 'NONE', #230, .T. ) ;
#262 = AXIS2_PLACEMENT_3D ( 'NONE', #320, #96, #95 ) ;
#263 = CIRCLE ( 'NONE', #116, 25.39999999999994200 ) ;
#264 = SURFACE_STYLE_USAGE ( .BOTH. , #16 ) ;
#265 = PRODUCT_DEFINITION_CONTEXT ( 'detailed design', #20, 'design' ) ;
#266 = EDGE_CURVE ( 'NONE', #235, #219, #253, .T. ) ;
#267 = DIRECTION ( 'NONE',  ( 0.0000000000000000000, 1.000000000000000000, 0.0000000000000000000 ) ) ;
#268 = VERTEX_POINT ( 'NONE', #273 ) ;
#269 = VECTOR ( 'NONE', #275, 1000.000000000000000 ) ;
#270 = ADVANCED_FACE ( 'NONE', ( #210 ), #347, .F. ) ;
#271 = DIRECTION ( 'NONE',  ( 0.0000000000000000000, 0.0000000000000000000, 1.000000000000000000 ) ) ;
#272 = DIRECTION ( 'NONE',  ( 0.0000000000000000000, 0.0000000000000000000, 1.000000000000000000 ) ) ;
#273 = CARTESIAN_POINT ( 'NONE',  ( 153.3104725967487200, 0.0000000000000000000, -25.39999999999995900 ) ) ;
#274 = EDGE_CURVE ( 'NONE', #268, #45, #172, .T. ) ;
#275 = DIRECTION ( 'NONE',  ( -1.000000000000000000, -0.0000000000000000000, -0.0000000000000000000 ) ) ;
#276 =( GEOMETRIC_REPRESENTATION_CONTEXT ( 3 ) GLOBAL_UNCERTAINTY_ASSIGNED_CONTEXT ( ( #144 ) ) GLOBAL_UNIT_ASSIGNED_CONTEXT ( ( #255, #205, #40 ) ) REPRESENTATION_CONTEXT ( 'NONE', 'WORKASPACE' ) );
#277 = CYLINDRICAL_SURFACE ( 'NONE', #322, 25.39999999999997400 ) ;
#278 = CARTESIAN_POINT ( 'NONE',  ( 61.35944378259088700, 0.0000000000000000000, 1.934033328962417500E-014 ) ) ;
#279 = DIRECTION ( 'NONE',  ( -1.000000000000000000, -0.0000000000000000000, -0.0000000000000000000 ) ) ;
#280 = APPLICATION_CONTEXT ( 'automotive_design' ) ;
#281 = AXIS2_PLACEMENT_3D ( 'NONE', #247, #109, #110 ) ;
#282 = EDGE_LOOP ( 'NONE', ( #227, #156, #107 ) ) ;
#283 = SURFACE_STYLE_USAGE ( .BOTH. , #312 ) ;
#284 = ORIENTED_EDGE ( 'NONE', *, *, #146, .T. ) ;
#285 = SURFACE_STYLE_FILL_AREA ( #138 ) ;
#286 = AXIS2_PLACEMENT_3D ( 'NONE', #243, #150, #271 ) ;
#287 = UNCERTAINTY_MEASURE_WITH_UNIT (LENGTH_MEASURE( 1.000000000000000100E-005 ), #112, 'distance_accuracy_value', 'NONE');
#288 = CYLINDRICAL_SURFACE ( 'NONE', #197, 25.39999999999997400 ) ;
#289 = EDGE_LOOP ( 'NONE', ( #94, #27, #6 ) ) ;
#290 = EDGE_CURVE ( 'NONE', #142, #155, #53, .T. ) ;
#291 = VERTEX_POINT ( 'NONE', #246 ) ;
#292 = CIRCLE ( 'NONE', #71, 87.56999999999999300 ) ;
#293 = ADVANCED_FACE ( 'NONE', ( #92 ), #185, .F. ) ;
#294 = ORIENTED_EDGE ( 'NONE', *, *, #232, .F. ) ;
#295 = CIRCLE ( 'NONE', #262, 25.39999999999997000 ) ;
#296 = ORIENTED_EDGE ( 'NONE', *, *, #111, .F. ) ;
#297 = EDGE_CURVE ( 'NONE', #235, #21, #34, .T. ) ;
#298 = AXIS2_PLACEMENT_3D ( 'NONE', #17, #339, #170 ) ;
#299 = CARTESIAN_POINT ( 'NONE',  ( 204.0694437825908700, 0.0000000000000000000, -5.542687920448698100E-014 ) ) ;
#300 = DIRECTION ( 'NONE',  ( 0.0000000000000000000, -1.000000000000000000, -1.224646799147353200E-016 ) ) ;
#301 = CARTESIAN_POINT ( 'NONE',  ( -0.5519199926577972300, 0.0000000000000000000, 0.0000000000000000000 ) ) ;
#302 = CLOSED_SHELL ( 'NONE', ( #89, #325, #217, #174, #7, #56 ) ) ;
#303 = FACE_OUTER_BOUND ( 'NONE', #323, .T. ) ;
#304 = AXIS2_PLACEMENT_3D ( 'NONE', #308, #188, #158 ) ;
#305 = AXIS2_PLACEMENT_3D ( 'NONE', #278, #208, #139 ) ;
#306 = CARTESIAN_POINT ( 'NONE',  ( -0.5519199926577972300, 3.110602869834270200E-015, -25.39999999999994200 ) ) ;
#307 = CARTESIAN_POINT ( 'NONE',  ( 148.9294437825908800, 0.0000000000000000000, 2.470244929969086300E-014 ) ) ;
#308 = CARTESIAN_POINT ( 'NONE',  ( 0.0000000000000000000, 0.0000000000000000000, 0.0000000000000000000 ) ) ;
#309 = ORIENTED_EDGE ( 'NONE', *, *, #82, .T. ) ;
#310 = SPHERICAL_SURFACE ( 'NONE', #317, 67.14000000000000100 ) ;
#311 = DIRECTION ( 'NONE',  ( -1.000000000000000000, -0.0000000000000000000, -0.0000000000000000000 ) ) ;
#312 = SURFACE_SIDE_STYLE ('',( #285 ) ) ;
#313 = ORIENTED_EDGE ( 'NONE', *, *, #52, .F. ) ;
#314 = SPHERICAL_SURFACE ( 'NONE', #33, 87.56999999999999300 ) ;
#315 = FILL_AREA_STYLE_COLOUR ( '', #121 ) ;
#316 = ORIENTED_EDGE ( 'NONE', *, *, #60, .F. ) ;
#317 = AXIS2_PLACEMENT_3D ( 'NONE', #299, #267, #324 ) ;
#318 = CARTESIAN_POINT ( 'NONE',  ( 141.9194671132469000, 0.0000000000000000000, 0.0000000000000000000 ) ) ;
#319 = CIRCLE ( 'NONE', #137, 67.14000000000000100 ) ;
#320 = CARTESIAN_POINT ( 'NONE',  ( 145.1648427733480600, 0.0000000000000000000, 0.0000000000000000000 ) ) ;
#321 = PRODUCT_DEFINITION ( 'Î´Öª', '', #345, #265 ) ;
#322 = AXIS2_PLACEMENT_3D ( 'NONE', #254, #77, #136 ) ;
#323 = EDGE_LOOP ( 'NONE', ( #163, #309, #316 ) ) ;
#324 = DIRECTION ( 'NONE',  ( 0.0000000000000000000, 0.0000000000000000000, 1.000000000000000000 ) ) ;
#325 = ADVANCED_FACE ( 'NONE', ( #148 ), #288, .T. ) ;
#326 = DIRECTION ( 'NONE',  ( 0.0000000000000000000, -1.000000000000000000, -1.224646799147353200E-016 ) ) ;
#327 = DIRECTION ( 'NONE',  ( 0.0000000000000000000, 1.224646799147353200E-016, -1.000000000000000000 ) ) ;
#328 = DIRECTION ( 'NONE',  ( -1.000000000000000000, -0.0000000000000000000, -0.0000000000000000000 ) ) ;
#329 = DIRECTION ( 'NONE',  ( 0.0000000000000000000, 0.0000000000000000000, 1.000000000000000000 ) ) ;
#330 = CARTESIAN_POINT ( 'NONE',  ( 141.9194671132469000, 3.110602869834274500E-015, -25.40000000000003400 ) ) ;
#331 = FILL_AREA_STYLE_COLOUR ( '', #104 ) ;
#332 = EDGE_CURVE ( 'NONE', #291, #155, #242, .T. ) ;
#333 = DIRECTION ( 'NONE',  ( -1.000000000000000000, -0.0000000000000000000, -0.0000000000000000000 ) ) ;
#334 = CARTESIAN_POINT ( 'NONE',  ( 145.1648427733480300, 0.0000000000000000000, 0.0000000000000000000 ) ) ;
#335 =( LENGTH_UNIT ( ) NAMED_UNIT ( * ) SI_UNIT ( .MILLI., .METRE. ) );
#336 = SHAPE_DEFINITION_REPRESENTATION ( #31, #73 ) ;
#337 = VERTEX_POINT ( 'NONE', #83 ) ;
#338 = FACE_OUTER_BOUND ( 'NONE', #212, .T. ) ;
#339 = DIRECTION ( 'NONE',  ( -0.0000000000000000000, -1.000000000000000000, -0.0000000000000000000 ) ) ;
#340 = DIRECTION ( 'NONE',  ( 0.0000000000000000000, 0.0000000000000000000, 1.000000000000000000 ) ) ;
#341 = SURFACE_STYLE_USAGE ( .BOTH. , #178 ) ;
#342 = PRODUCT_CONTEXT ( 'NONE', #280, 'mechanical' ) ;
#343 = DIRECTION ( 'NONE',  ( 0.0000000000000000000, -1.224646799147353200E-016, 1.000000000000000000 ) ) ;
#344 = ORIENTED_EDGE ( 'NONE', *, *, #229, .F. ) ;
#345 = PRODUCT_DEFINITION_FORMATION_WITH_SPECIFIED_SOURCE ( 'ÈÎºÎ', '', #233, .NOT_KNOWN. ) ;
#346 = AXIS2_PLACEMENT_3D ( 'NONE', #171, #326, #200 ) ;
#347 = SPHERICAL_SURFACE ( 'NONE', #113, 234.2700000000000400 ) ;
ENDSEC;
END-ISO-10303-21;
