ISO-10303-21;
HEADER;
FILE_DESCRIPTION (( 'STEP AP214' ),
    '1' );
FILE_NAME ('145168.STEP',
    '2019-06-11T07:24:24',
    ( 'user' ),
    ( 'Î¢ÈíÖÐ¹ú' ),
    'SwSTEP 2.0',
    'SolidWorks 2016',
    '' );
FILE_SCHEMA (( 'AUTOMOTIVE_DESIGN' ));
ENDSEC;

DATA;
#1 = SPHERICAL_SURFACE ( 'NONE', #54, 95.94000000000011100 ) ;
#2 = SURFACE_SIDE_STYLE ('',( #222 ) ) ;
#3 = AXIS2_PLACEMENT_3D ( 'NONE', #154, #96, #67 ) ;
#4 = EDGE_CURVE ( 'NONE', #312, #106, #89, .T. ) ;
#5 = FACE_OUTER_BOUND ( 'NONE', #86, .T. ) ;
#6 = ORIENTED_EDGE ( 'NONE', *, *, #318, .F. ) ;
#7 = ADVANCED_FACE ( 'NONE', ( #105 ), #287, .T. ) ;
#8 = SPHERICAL_SURFACE ( 'NONE', #148, 70.00000000000000000 ) ;
#9 = COLOUR_RGB ( '',1.000000000000000000, 1.000000000000000000, 1.000000000000000000 ) ;
#10 = ORIENTED_EDGE ( 'NONE', *, *, #98, .F. ) ;
#11 = EDGE_LOOP ( 'NONE', ( #146, #230, #152 ) ) ;
#12 = CARTESIAN_POINT ( 'NONE',  ( -0.5519199926577972300, 1.555301434917132500E-015, -12.69999999999995100 ) ) ;
#13 = DIRECTION ( 'NONE',  ( 0.0000000000000000000, 0.0000000000000000000, -1.000000000000000000 ) ) ;
#14 = SPHERICAL_SURFACE ( 'NONE', #182, 95.94000000000011100 ) ;
#15 = ORIENTED_EDGE ( 'NONE', *, *, #188, .F. ) ;
#16 = DIRECTION ( 'NONE',  ( -1.000000000000000000, -0.0000000000000000000, -0.0000000000000000000 ) ) ;
#17 = DIRECTION ( 'NONE',  ( -0.0000000000000000000, -1.000000000000000000, -0.0000000000000000000 ) ) ;
#18 =( NAMED_UNIT ( * ) SI_UNIT ( $, .STERADIAN. ) SOLID_ANGLE_UNIT ( ) );
#19 = DIRECTION ( 'NONE',  ( -1.000000000000000000, -0.0000000000000000000, -0.0000000000000000000 ) ) ;
#20 = AXIS2_PLACEMENT_3D ( 'NONE', #315, #263, #107 ) ;
#21 = CARTESIAN_POINT ( 'NONE',  ( 375.9741592538075000, 0.0000000000000000000, 0.0000000000000000000 ) ) ;
#22 = ORIENTED_EDGE ( 'NONE', *, *, #37, .T. ) ;
#23 = AXIS2_PLACEMENT_3D ( 'NONE', #339, #328, #40 ) ;
#24 = CARTESIAN_POINT ( 'NONE',  ( 2.724159253807425500, 0.0000000000000000000, -3.657587758717472300E-014 ) ) ;
#25 = DIRECTION ( 'NONE',  ( 0.0000000000000000000, 0.0000000000000000000, -1.000000000000000000 ) ) ;
#26 = CARTESIAN_POINT ( 'NONE',  ( 97.81986683306686800, 0.0000000000000000000, 0.0000000000000000000 ) ) ;
#27 = VERTEX_POINT ( 'NONE', #151 ) ;
#28 = CARTESIAN_POINT ( 'NONE',  ( 0.0000000000000000000, 0.0000000000000000000, 0.0000000000000000000 ) ) ;
#29 = UNCERTAINTY_MEASURE_WITH_UNIT (LENGTH_MEASURE( 1.000000000000000100E-005 ), #215, 'distance_accuracy_value', 'NONE');
#30 = CARTESIAN_POINT ( 'NONE',  ( -0.5519199926577972300, 0.0000000000000000000, 0.0000000000000000000 ) ) ;
#31 = ADVANCED_FACE ( 'NONE', ( #65 ), #74, .F. ) ;
#32 = SURFACE_STYLE_FILL_AREA ( #123 ) ;
#33 = ORIENTED_EDGE ( 'NONE', *, *, #4, .T. ) ;
#34 = CYLINDRICAL_SURFACE ( 'NONE', #158, 12.69999999999995100 ) ;
#35 = FILL_AREA_STYLE ('',( #301 ) ) ;
#36 = PRESENTATION_STYLE_ASSIGNMENT (( #85 ) ) ;
#37 = EDGE_CURVE ( 'NONE', #111, #179, #307, .T. ) ;
#38 =( GEOMETRIC_REPRESENTATION_CONTEXT ( 3 ) GLOBAL_UNCERTAINTY_ASSIGNED_CONTEXT ( ( #344 ) ) GLOBAL_UNIT_ASSIGNED_CONTEXT ( ( #46, #235, #18 ) ) REPRESENTATION_CONTEXT ( 'NONE', 'WORKASPACE' ) );
#39 = AXIS2_PLACEMENT_3D ( 'NONE', #274, #286, #100 ) ;
#40 = DIRECTION ( 'NONE',  ( 0.0000000000000000000, 0.0000000000000000000, -1.000000000000000000 ) ) ;
#41 = ADVANCED_FACE ( 'NONE', ( #170 ), #94, .T. ) ;
#42 = CARTESIAN_POINT ( 'NONE',  ( 101.9583091648026000, 0.0000000000000000000, 0.0000000000000000000 ) ) ;
#43 = EDGE_LOOP ( 'NONE', ( #58, #293, #153 ) ) ;
#44 = SPHERICAL_SURFACE ( 'NONE', #39, 95.94000000000011100 ) ;
#45 = DIRECTION ( 'NONE',  ( -1.000000000000000000, -0.0000000000000000000, -0.0000000000000000000 ) ) ;
#46 =( LENGTH_UNIT ( ) NAMED_UNIT ( * ) SI_UNIT ( .MILLI., .METRE. ) );
#47 = CARTESIAN_POINT ( 'NONE',  ( 164.6641592538074100, 0.0000000000000000000, 5.162801711300239400E-014 ) ) ;
#48 = CIRCLE ( 'NONE', #305, 12.69999999999995100 ) ;
#49 = DIRECTION ( 'NONE',  ( 0.0000000000000000000, 0.0000000000000000000, -1.000000000000000000 ) ) ;
#50 = CARTESIAN_POINT ( 'NONE',  ( 164.6641592538074100, 0.0000000000000000000, 5.162801711300239400E-014 ) ) ;
#51 = ORIENTED_EDGE ( 'NONE', *, *, #225, .T. ) ;
#52 = DIRECTION ( 'NONE',  ( -1.000000000000000000, -0.0000000000000000000, -0.0000000000000000000 ) ) ;
#53 = CIRCLE ( 'NONE', #3, 12.69999999999995100 ) ;
#54 = AXIS2_PLACEMENT_3D ( 'NONE', #294, #226, #322 ) ;
#55 = CARTESIAN_POINT ( 'NONE',  ( -0.8160621761658039000, 0.0000000000000000000, 12.70000000000001500 ) ) ;
#56 = AXIS2_PLACEMENT_3D ( 'NONE', #233, #155, #68 ) ;
#57 = EDGE_LOOP ( 'NONE', ( #329, #101, #330, #199 ) ) ;
#58 = ORIENTED_EDGE ( 'NONE', *, *, #297, .F. ) ;
#59 = ADVANCED_FACE ( 'NONE', ( #273 ), #44, .T. ) ;
#60 = EDGE_LOOP ( 'NONE', ( #317, #231, #336 ) ) ;
#61 = FACE_OUTER_BOUND ( 'NONE', #326, .T. ) ;
#62 = VECTOR ( 'NONE', #266, 1000.000000000000000 ) ;
#63 = PRESENTATION_LAYER_ASSIGNMENT (  '', '', ( #197 ) ) ;
#64 = PRESENTATION_STYLE_ASSIGNMENT (( #77 ) ) ;
#65 = FACE_OUTER_BOUND ( 'NONE', #43, .T. ) ;
#66 = EDGE_CURVE ( 'NONE', #177, #184, #303, .T. ) ;
#67 = DIRECTION ( 'NONE',  ( 0.0000000000000000000, 0.0000000000000000000, 1.000000000000000000 ) ) ;
#68 = DIRECTION ( 'NONE',  ( 0.0000000000000000000, 0.0000000000000000000, -1.000000000000000000 ) ) ;
#69 = DIRECTION ( 'NONE',  ( -1.000000000000000000, -0.0000000000000000000, -0.0000000000000000000 ) ) ;
#70 = DIRECTION ( 'NONE',  ( 0.0000000000000000000, 0.0000000000000000000, 1.000000000000000000 ) ) ;
#71 = SHAPE_DEFINITION_REPRESENTATION ( #113, #127 ) ;
#72 = AXIS2_PLACEMENT_3D ( 'NONE', #118, #223, #320 ) ;
#73 = AXIS2_PLACEMENT_3D ( 'NONE', #200, #17, #13 ) ;
#74 = SPHERICAL_SURFACE ( 'NONE', #73, 274.3100000000000600 ) ;
#75 = PRODUCT_CONTEXT ( 'NONE', #253, 'mechanical' ) ;
#76 =( NAMED_UNIT ( * ) SI_UNIT ( $, .STERADIAN. ) SOLID_ANGLE_UNIT ( ) );
#77 = SURFACE_STYLE_USAGE ( .BOTH. , #241 ) ;
#78 = DIRECTION ( 'NONE',  ( -1.000000000000000000, -0.0000000000000000000, -0.0000000000000000000 ) ) ;
#79 = FACE_OUTER_BOUND ( 'NONE', #11, .T. ) ;
#80 = ORIENTED_EDGE ( 'NONE', *, *, #299, .T. ) ;
#81 = DIRECTION ( 'NONE',  ( 0.0000000000000000000, 0.0000000000000000000, 1.000000000000000000 ) ) ;
#82 = MECHANICAL_DESIGN_GEOMETRIC_PRESENTATION_REPRESENTATION (  '', ( #197 ), #103 ) ;
#83 = EDGE_LOOP ( 'NONE', ( #183, #132, #289 ) ) ;
#84 = SPHERICAL_SURFACE ( 'NONE', #248, 95.94000000000011100 ) ;
#85 = SURFACE_STYLE_USAGE ( .BOTH. , #2 ) ;
#86 = EDGE_LOOP ( 'NONE', ( #167, #162, #129, #237 ) ) ;
#87 = ADVANCED_FACE ( 'NONE', ( #79 ), #8, .T. ) ;
#88 = AXIS2_PLACEMENT_3D ( 'NONE', #175, #16, #255 ) ;
#89 = CIRCLE ( 'NONE', #23, 95.94000000000011100 ) ;
#90 = AXIS2_PLACEMENT_3D ( 'NONE', #201, #52, #214 ) ;
#91 = APPLICATION_PROTOCOL_DEFINITION ( 'draft international standard', 'automotive_design', 1998, #338 ) ;
#92 = UNCERTAINTY_MEASURE_WITH_UNIT (LENGTH_MEASURE( 1.000000000000000100E-005 ), #163, 'distance_accuracy_value', 'NONE');
#93 = DIRECTION ( 'NONE',  ( 0.0000000000000000000, 1.224646799147353200E-016, -1.000000000000000000 ) ) ;
#94 = CYLINDRICAL_SURFACE ( 'NONE', #109, 12.70000000000001500 ) ;
#95 = CARTESIAN_POINT ( 'NONE',  ( 95.82587048948671800, 0.0000000000000000000, -12.69999999999996000 ) ) ;
#96 = DIRECTION ( 'NONE',  ( -1.000000000000000000, -0.0000000000000000000, -0.0000000000000000000 ) ) ;
#97 = DIRECTION ( 'NONE',  ( 0.0000000000000000000, 0.0000000000000000000, 1.000000000000000000 ) ) ;
#98 = EDGE_CURVE ( 'NONE', #27, #242, #346, .T. ) ;
#99 = CARTESIAN_POINT ( 'NONE',  ( 97.81986683306686800, 1.555301434917140400E-015, -12.70000000000001500 ) ) ;
#100 = DIRECTION ( 'NONE',  ( 0.0000000000000000000, 0.0000000000000000000, 1.000000000000000000 ) ) ;
#101 = ORIENTED_EDGE ( 'NONE', *, *, #172, .T. ) ;
#102 = DIRECTION ( 'NONE',  ( -0.0000000000000000000, 1.000000000000000000, 1.224646799147353200E-016 ) ) ;
#103 =( GEOMETRIC_REPRESENTATION_CONTEXT ( 3 ) GLOBAL_UNCERTAINTY_ASSIGNED_CONTEXT ( ( #29 ) ) GLOBAL_UNIT_ASSIGNED_CONTEXT ( ( #215, #135, #191 ) ) REPRESENTATION_CONTEXT ( 'NONE', 'WORKASPACE' ) );
#104 =( NAMED_UNIT ( * ) PLANE_ANGLE_UNIT ( ) SI_UNIT ( $, .RADIAN. ) );
#105 = FACE_OUTER_BOUND ( 'NONE', #60, .T. ) ;
#106 = VERTEX_POINT ( 'NONE', #279 ) ;
#107 = DIRECTION ( 'NONE',  ( 0.0000000000000000000, 0.0000000000000000000, 1.000000000000000000 ) ) ;
#108 = DIRECTION ( 'NONE',  ( -0.0000000000000000000, -1.000000000000000000, -0.0000000000000000000 ) ) ;
#109 = AXIS2_PLACEMENT_3D ( 'NONE', #186, #19, #284 ) ;
#110 = ORIENTED_EDGE ( 'NONE', *, *, #203, .F. ) ;
#111 = VERTEX_POINT ( 'NONE', #236 ) ;
#112 = ADVANCED_FACE ( 'NONE', ( #157 ), #14, .F. ) ;
#113 = PRODUCT_DEFINITION_SHAPE ( 'NONE', 'NONE',  #246 ) ;
#114 = VECTOR ( 'NONE', #137, 1000.000000000000000 ) ;
#115 = UNCERTAINTY_MEASURE_WITH_UNIT (LENGTH_MEASURE( 1.000000000000000100E-005 ), #285, 'distance_accuracy_value', 'NONE');
#116 = CIRCLE ( 'NONE', #321, 70.00000000000000000 ) ;
#117 = STYLED_ITEM ( 'NONE', ( #64 ), #156 ) ;
#118 = CARTESIAN_POINT ( 'NONE',  ( 2.724159253807425500, 0.0000000000000000000, -3.657587758717472300E-014 ) ) ;
#119 = ORIENTED_EDGE ( 'NONE', *, *, #37, .F. ) ;
#120 = ORIENTED_EDGE ( 'NONE', *, *, #219, .T. ) ;
#121 = SURFACE_SIDE_STYLE ('',( #32 ) ) ;
#122 =( NAMED_UNIT ( * ) SI_UNIT ( $, .STERADIAN. ) SOLID_ANGLE_UNIT ( ) );
#123 = FILL_AREA_STYLE ('',( #343 ) ) ;
#124 = CIRCLE ( 'NONE', #332, 12.69999999999995100 ) ;
#125 = EDGE_CURVE ( 'NONE', #184, #177, #260, .T. ) ;
#126 = STYLED_ITEM ( 'NONE', ( #140 ), #127 ) ;
#127 = ADVANCED_BREP_SHAPE_REPRESENTATION ( '145168', ( #156, #141, #221 ), #38 ) ;
#128 = AXIS2_PLACEMENT_3D ( 'NONE', #304, #272, #268 ) ;
#129 = ORIENTED_EDGE ( 'NONE', *, *, #125, .F. ) ;
#130 = DIRECTION ( 'NONE',  ( 0.0000000000000000000, 0.0000000000000000000, 1.000000000000000000 ) ) ;
#131 = DIRECTION ( 'NONE',  ( 0.0000000000000000000, 0.0000000000000000000, 1.000000000000000000 ) ) ;
#132 = ORIENTED_EDGE ( 'NONE', *, *, #98, .T. ) ;
#133 = SURFACE_STYLE_FILL_AREA ( #134 ) ;
#134 = FILL_AREA_STYLE ('',( #243 ) ) ;
#135 =( NAMED_UNIT ( * ) PLANE_ANGLE_UNIT ( ) SI_UNIT ( $, .RADIAN. ) );
#136 = PRESENTATION_LAYER_ASSIGNMENT (  '', '', ( #117 ) ) ;
#137 = DIRECTION ( 'NONE',  ( -1.000000000000000000, -0.0000000000000000000, -0.0000000000000000000 ) ) ;
#138 = CLOSED_SHELL ( 'NONE', ( #59, #147, #7, #87, #41, #171 ) ) ;
#139 = FACE_OUTER_BOUND ( 'NONE', #216, .T. ) ;
#140 = PRESENTATION_STYLE_ASSIGNMENT (( #337 ) ) ;
#141 = MANIFOLD_SOLID_BREP ( 'Ðý×ª2', #250 ) ;
#142 = ADVANCED_FACE ( 'NONE', ( #252 ), #34, .T. ) ;
#143 = CIRCLE ( 'NONE', #72, 95.94000000000011100 ) ;
#144 = EDGE_CURVE ( 'NONE', #106, #184, #212, .T. ) ;
#145 = PRESENTATION_LAYER_ASSIGNMENT (  '', '', ( #126 ) ) ;
#146 = ORIENTED_EDGE ( 'NONE', *, *, #210, .F. ) ;
#147 = ADVANCED_FACE ( 'NONE', ( #5 ), #174, .T. ) ;
#148 = AXIS2_PLACEMENT_3D ( 'NONE', #239, #227, #25 ) ;
#149 = CIRCLE ( 'NONE', #224, 12.70000000000001500 ) ;
#150 =( NAMED_UNIT ( * ) PLANE_ANGLE_UNIT ( ) SI_UNIT ( $, .RADIAN. ) );
#151 = CARTESIAN_POINT ( 'NONE',  ( 98.66415925380752600, 0.0000000000000000000, -3.070124689166486200E-014 ) ) ;
#152 = ORIENTED_EDGE ( 'NONE', *, *, #245, .T. ) ;
#153 = ORIENTED_EDGE ( 'NONE', *, *, #225, .F. ) ;
#154 = CARTESIAN_POINT ( 'NONE',  ( 97.81986683306686800, 0.0000000000000000000, 0.0000000000000000000 ) ) ;
#155 = DIRECTION ( 'NONE',  ( -0.0000000000000000000, -1.000000000000000000, -0.0000000000000000000 ) ) ;
#156 = MANIFOLD_SOLID_BREP ( 'Ðý×ª1', #138 ) ;
#157 = FACE_OUTER_BOUND ( 'NONE', #83, .T. ) ;
#158 = AXIS2_PLACEMENT_3D ( 'NONE', #30, #69, #327 ) ;
#159 = SPHERICAL_SURFACE ( 'NONE', #278, 274.3100000000000600 ) ;
#160 = DIRECTION ( 'NONE',  ( -1.000000000000000000, -0.0000000000000000000, -0.0000000000000000000 ) ) ;
#161 = EDGE_CURVE ( 'NONE', #271, #177, #291, .T. ) ;
#162 = ORIENTED_EDGE ( 'NONE', *, *, #161, .T. ) ;
#163 =( LENGTH_UNIT ( ) NAMED_UNIT ( * ) SI_UNIT ( .MILLI., .METRE. ) );
#164 = DIRECTION ( 'NONE',  ( 0.0000000000000000000, -1.000000000000000000, -1.224646799147353200E-016 ) ) ;
#165 = ORIENTED_EDGE ( 'NONE', *, *, #333, .T. ) ;
#166 = MECHANICAL_DESIGN_GEOMETRIC_PRESENTATION_REPRESENTATION (  '', ( #126 ), #173 ) ;
#167 = ORIENTED_EDGE ( 'NONE', *, *, #190, .T. ) ;
#168 = AXIS2_PLACEMENT_3D ( 'NONE', #220, #256, #298 ) ;
#169 = CARTESIAN_POINT ( 'NONE',  ( -0.5519199926577972300, 0.0000000000000000000, 12.69999999999995100 ) ) ;
#170 = FACE_OUTER_BOUND ( 'NONE', #57, .T. ) ;
#171 = ADVANCED_FACE ( 'NONE', ( #139 ), #84, .T. ) ;
#172 = EDGE_CURVE ( 'NONE', #271, #106, #149, .T. ) ;
#173 =( GEOMETRIC_REPRESENTATION_CONTEXT ( 3 ) GLOBAL_UNCERTAINTY_ASSIGNED_CONTEXT ( ( #115 ) ) GLOBAL_UNIT_ASSIGNED_CONTEXT ( ( #285, #150, #122 ) ) REPRESENTATION_CONTEXT ( 'NONE', 'WORKASPACE' ) );
#174 = CYLINDRICAL_SURFACE ( 'NONE', #176, 12.70000000000001500 ) ;
#175 = CARTESIAN_POINT ( 'NONE',  ( -0.5519199926577972300, 0.0000000000000000000, 0.0000000000000000000 ) ) ;
#176 = AXIS2_PLACEMENT_3D ( 'NONE', #270, #181, #290 ) ;
#177 = VERTEX_POINT ( 'NONE', #95 ) ;
#178 = CARTESIAN_POINT ( 'NONE',  ( 101.9583091648025900, 0.0000000000000000000, -12.70000000000013800 ) ) ;
#179 = VERTEX_POINT ( 'NONE', #292 ) ;
#180 = CARTESIAN_POINT ( 'NONE',  ( 97.81986683306686800, 1.555301434917128200E-015, -12.69999999999995300 ) ) ;
#181 = DIRECTION ( 'NONE',  ( -1.000000000000000000, -0.0000000000000000000, -0.0000000000000000000 ) ) ;
#182 = AXIS2_PLACEMENT_3D ( 'NONE', #251, #334, #196 ) ;
#183 = ORIENTED_EDGE ( 'NONE', *, *, #333, .F. ) ;
#184 = VERTEX_POINT ( 'NONE', #206 ) ;
#185 = CIRCLE ( 'NONE', #300, 274.3100000000000600 ) ;
#186 = CARTESIAN_POINT ( 'NONE',  ( -0.8160621761658039000, 0.0000000000000000000, 0.0000000000000000000 ) ) ;
#187 = DIRECTION ( 'NONE',  ( 0.0000000000000000000, 0.0000000000000000000, 1.000000000000000000 ) ) ;
#188 = EDGE_CURVE ( 'NONE', #111, #275, #217, .T. ) ;
#189 = CARTESIAN_POINT ( 'NONE',  ( 2.724159253807425500, 0.0000000000000000000, -3.657587758717472300E-014 ) ) ;
#190 = EDGE_CURVE ( 'NONE', #106, #271, #310, .T. ) ;
#191 =( NAMED_UNIT ( * ) SI_UNIT ( $, .STERADIAN. ) SOLID_ANGLE_UNIT ( ) );
#192 = MECHANICAL_DESIGN_GEOMETRIC_PRESENTATION_REPRESENTATION (  '', ( #117 ), #207 ) ;
#193 = ORIENTED_EDGE ( 'NONE', *, *, #4, .F. ) ;
#194 = ORIENTED_EDGE ( 'NONE', *, *, #302, .F. ) ;
#195 = CIRCLE ( 'NONE', #261, 95.94000000000011100 ) ;
#196 = DIRECTION ( 'NONE',  ( 0.0000000000000000000, 0.0000000000000000000, 1.000000000000000000 ) ) ;
#197 = STYLED_ITEM ( 'NONE', ( #36 ), #141 ) ;
#198 = VERTEX_POINT ( 'NONE', #178 ) ;
#199 = ORIENTED_EDGE ( 'NONE', *, *, #66, .F. ) ;
#200 = CARTESIAN_POINT ( 'NONE',  ( 375.9741592538075000, 0.0000000000000000000, 0.0000000000000000000 ) ) ;
#201 = CARTESIAN_POINT ( 'NONE',  ( 95.82587048948671800, 0.0000000000000000000, 0.0000000000000000000 ) ) ;
#202 = DIRECTION ( 'NONE',  ( 0.0000000000000000000, 1.000000000000000000, -0.0000000000000000000 ) ) ;
#203 = EDGE_CURVE ( 'NONE', #198, #111, #48, .T. ) ;
#204 = ORIENTED_EDGE ( 'NONE', *, *, #190, .F. ) ;
#205 = LINE ( 'NONE', #12, #62 ) ;
#206 = CARTESIAN_POINT ( 'NONE',  ( 95.82587048948671800, -1.555301434917133500E-015, 12.70000000000001200 ) ) ;
#207 =( GEOMETRIC_REPRESENTATION_CONTEXT ( 3 ) GLOBAL_UNCERTAINTY_ASSIGNED_CONTEXT ( ( #92 ) ) GLOBAL_UNIT_ASSIGNED_CONTEXT ( ( #163, #104, #76 ) ) REPRESENTATION_CONTEXT ( 'NONE', 'WORKASPACE' ) );
#208 = EDGE_LOOP ( 'NONE', ( #265, #335, #311, #119 ) ) ;
#209 = DIRECTION ( 'NONE',  ( 0.0000000000000000000, -1.000000000000000000, -1.224646799147353200E-016 ) ) ;
#210 = EDGE_CURVE ( 'NONE', #184, #309, #116, .T. ) ;
#211 = CARTESIAN_POINT ( 'NONE',  ( 97.81986683306686800, 0.0000000000000000000, 0.0000000000000000000 ) ) ;
#212 = LINE ( 'NONE', #55, #341 ) ;
#213 = FACE_OUTER_BOUND ( 'NONE', #208, .T. ) ;
#214 = DIRECTION ( 'NONE',  ( 0.0000000000000000000, 0.0000000000000000000, 1.000000000000000000 ) ) ;
#215 =( LENGTH_UNIT ( ) NAMED_UNIT ( * ) SI_UNIT ( .MILLI., .METRE. ) );
#216 = EDGE_LOOP ( 'NONE', ( #323, #33, #244 ) ) ;
#217 = CIRCLE ( 'NONE', #264, 274.3100000000000600 ) ;
#218 = ADVANCED_FACE ( 'NONE', ( #61 ), #159, .F. ) ;
#219 = EDGE_CURVE ( 'NONE', #312, #271, #195, .T. ) ;
#220 = CARTESIAN_POINT ( 'NONE',  ( 95.82587048948671800, 0.0000000000000000000, 0.0000000000000000000 ) ) ;
#221 = AXIS2_PLACEMENT_3D ( 'NONE', #28, #97, #232 ) ;
#222 = SURFACE_STYLE_FILL_AREA ( #35 ) ;
#223 = DIRECTION ( 'NONE',  ( 0.0000000000000000000, -1.000000000000000000, 0.0000000000000000000 ) ) ;
#224 = AXIS2_PLACEMENT_3D ( 'NONE', #211, #347, #81 ) ;
#225 = EDGE_CURVE ( 'NONE', #198, #275, #185, .T. ) ;
#226 = DIRECTION ( 'NONE',  ( 0.0000000000000000000, 1.000000000000000000, 0.0000000000000000000 ) ) ;
#227 = DIRECTION ( 'NONE',  ( -0.0000000000000000000, -1.000000000000000000, -0.0000000000000000000 ) ) ;
#228 = DIRECTION ( 'NONE',  ( 0.0000000000000000000, 0.0000000000000000000, 1.000000000000000000 ) ) ;
#229 = DIRECTION ( 'NONE',  ( 0.0000000000000000000, 1.000000000000000000, 0.0000000000000000000 ) ) ;
#230 = ORIENTED_EDGE ( 'NONE', *, *, #125, .T. ) ;
#231 = ORIENTED_EDGE ( 'NONE', *, *, #210, .T. ) ;
#232 = DIRECTION ( 'NONE',  ( 1.000000000000000000, 0.0000000000000000000, 0.0000000000000000000 ) ) ;
#233 = CARTESIAN_POINT ( 'NONE',  ( 164.6641592538074100, 0.0000000000000000000, 5.162801711300239400E-014 ) ) ;
#234 = CARTESIAN_POINT ( 'NONE',  ( 94.66415925380741200, 0.0000000000000000000, 4.734175331598665100E-014 ) ) ;
#235 =( NAMED_UNIT ( * ) PLANE_ANGLE_UNIT ( ) SI_UNIT ( $, .RADIAN. ) );
#236 = CARTESIAN_POINT ( 'NONE',  ( 101.9583091648025900, -1.555301434917155600E-015, 12.70000000000013800 ) ) ;
#237 = ORIENTED_EDGE ( 'NONE', *, *, #144, .F. ) ;
#238 = DIRECTION ( 'NONE',  ( 0.0000000000000000000, 1.224646799147353200E-016, -1.000000000000000000 ) ) ;
#239 = CARTESIAN_POINT ( 'NONE',  ( 164.6641592538074100, 0.0000000000000000000, 5.162801711300239400E-014 ) ) ;
#240 = CIRCLE ( 'NONE', #316, 70.00000000000000000 ) ;
#241 = SURFACE_SIDE_STYLE ('',( #133 ) ) ;
#242 = VERTEX_POINT ( 'NONE', #180 ) ;
#243 = FILL_AREA_STYLE_COLOUR ( '', #9 ) ;
#244 = ORIENTED_EDGE ( 'NONE', *, *, #172, .F. ) ;
#245 = EDGE_CURVE ( 'NONE', #177, #309, #240, .T. ) ;
#246 = PRODUCT_DEFINITION ( 'Î´Öª', '', #259, #276 ) ;
#247 = COLOUR_RGB ( '',1.000000000000000000, 1.000000000000000000, 1.000000000000000000 ) ;
#248 = AXIS2_PLACEMENT_3D ( 'NONE', #189, #229, #70 ) ;
#249 = EDGE_LOOP ( 'NONE', ( #6, #254, #22, #194 ) ) ;
#250 = CLOSED_SHELL ( 'NONE', ( #308, #31, #112, #306, #218, #142 ) ) ;
#251 = CARTESIAN_POINT ( 'NONE',  ( 2.724159253807425500, 0.0000000000000000000, -3.657587758717472300E-014 ) ) ;
#252 = FACE_OUTER_BOUND ( 'NONE', #249, .T. ) ;
#253 = APPLICATION_CONTEXT ( 'automotive_design' ) ;
#254 = ORIENTED_EDGE ( 'NONE', *, *, #203, .T. ) ;
#255 = DIRECTION ( 'NONE',  ( 0.0000000000000000000, 0.0000000000000000000, 1.000000000000000000 ) ) ;
#256 = DIRECTION ( 'NONE',  ( -1.000000000000000000, -0.0000000000000000000, -0.0000000000000000000 ) ) ;
#257 = CARTESIAN_POINT ( 'NONE',  ( 101.9583091648026000, 0.0000000000000000000, 0.0000000000000000000 ) ) ;
#258 = DIRECTION ( 'NONE',  ( 0.0000000000000000000, 0.0000000000000000000, 1.000000000000000000 ) ) ;
#259 = PRODUCT_DEFINITION_FORMATION_WITH_SPECIFIED_SOURCE ( 'ÈÎºÎ', '', #345, .NOT_KNOWN. ) ;
#260 = CIRCLE ( 'NONE', #168, 12.70000000000001500 ) ;
#261 = AXIS2_PLACEMENT_3D ( 'NONE', #24, #102, #288 ) ;
#262 = CIRCLE ( 'NONE', #20, 12.69999999999995100 ) ;
#263 = DIRECTION ( 'NONE',  ( -1.000000000000000000, -0.0000000000000000000, -0.0000000000000000000 ) ) ;
#264 = AXIS2_PLACEMENT_3D ( 'NONE', #325, #164, #93 ) ;
#265 = ORIENTED_EDGE ( 'NONE', *, *, #297, .T. ) ;
#266 = DIRECTION ( 'NONE',  ( -1.000000000000000000, -0.0000000000000000000, -0.0000000000000000000 ) ) ;
#267 = DIRECTION ( 'NONE',  ( -1.000000000000000000, -0.0000000000000000000, -0.0000000000000000000 ) ) ;
#268 = DIRECTION ( 'NONE',  ( 0.0000000000000000000, -1.224646799147353200E-016, 1.000000000000000000 ) ) ;
#269 = CARTESIAN_POINT ( 'NONE',  ( 98.66415925380752600, 0.0000000000000000000, -3.070124689166486200E-014 ) ) ;
#270 = CARTESIAN_POINT ( 'NONE',  ( -0.8160621761658039000, 0.0000000000000000000, 0.0000000000000000000 ) ) ;
#271 = VERTEX_POINT ( 'NONE', #99 ) ;
#272 = DIRECTION ( 'NONE',  ( -0.0000000000000000000, 1.000000000000000000, 1.224646799147353200E-016 ) ) ;
#273 = FACE_OUTER_BOUND ( 'NONE', #324, .T. ) ;
#274 = CARTESIAN_POINT ( 'NONE',  ( 2.724159253807425500, 0.0000000000000000000, -3.657587758717472300E-014 ) ) ;
#275 = VERTEX_POINT ( 'NONE', #280 ) ;
#276 = PRODUCT_DEFINITION_CONTEXT ( 'detailed design', #338, 'design' ) ;
#277 = PRODUCT_RELATED_PRODUCT_CATEGORY ( 'part', '', ( #345 ) ) ;
#278 = AXIS2_PLACEMENT_3D ( 'NONE', #296, #108, #49 ) ;
#279 = CARTESIAN_POINT ( 'NONE',  ( 97.81986683306686800, 0.0000000000000000000, 12.70000000000001500 ) ) ;
#280 = CARTESIAN_POINT ( 'NONE',  ( 101.6641592538074500, 0.0000000000000000000, -1.679664317370552800E-014 ) ) ;
#281 = CARTESIAN_POINT ( 'NONE',  ( -0.8160621761658039000, 1.555301434917140400E-015, -12.70000000000001500 ) ) ;
#282 = EDGE_LOOP ( 'NONE', ( #10, #165, #80 ) ) ;
#283 = AXIS2_PLACEMENT_3D ( 'NONE', #26, #314, #187 ) ;
#284 = DIRECTION ( 'NONE',  ( 0.0000000000000000000, 0.0000000000000000000, 1.000000000000000000 ) ) ;
#285 =( LENGTH_UNIT ( ) NAMED_UNIT ( * ) SI_UNIT ( .MILLI., .METRE. ) );
#286 = DIRECTION ( 'NONE',  ( 0.0000000000000000000, 1.000000000000000000, 0.0000000000000000000 ) ) ;
#287 = SPHERICAL_SURFACE ( 'NONE', #56, 70.00000000000000000 ) ;
#288 = DIRECTION ( 'NONE',  ( 0.0000000000000000000, -1.224646799147353200E-016, 1.000000000000000000 ) ) ;
#289 = ORIENTED_EDGE ( 'NONE', *, *, #302, .T. ) ;
#290 = DIRECTION ( 'NONE',  ( 0.0000000000000000000, 0.0000000000000000000, 1.000000000000000000 ) ) ;
#291 = LINE ( 'NONE', #281, #295 ) ;
#292 = CARTESIAN_POINT ( 'NONE',  ( 97.81986683306686800, 0.0000000000000000000, 12.69999999999991600 ) ) ;
#293 = ORIENTED_EDGE ( 'NONE', *, *, #188, .T. ) ;
#294 = CARTESIAN_POINT ( 'NONE',  ( 2.724159253807425500, 0.0000000000000000000, -3.657587758717472300E-014 ) ) ;
#295 = VECTOR ( 'NONE', #45, 1000.000000000000000 ) ;
#296 = CARTESIAN_POINT ( 'NONE',  ( 375.9741592538075000, 0.0000000000000000000, 0.0000000000000000000 ) ) ;
#297 = EDGE_CURVE ( 'NONE', #111, #198, #124, .T. ) ;
#298 = DIRECTION ( 'NONE',  ( 0.0000000000000000000, 0.0000000000000000000, 1.000000000000000000 ) ) ;
#299 = EDGE_CURVE ( 'NONE', #179, #242, #53, .T. ) ;
#300 = AXIS2_PLACEMENT_3D ( 'NONE', #21, #202, #228 ) ;
#301 = FILL_AREA_STYLE_COLOUR ( '', #247 ) ;
#302 = EDGE_CURVE ( 'NONE', #242, #179, #262, .T. ) ;
#303 = CIRCLE ( 'NONE', #90, 12.70000000000001500 ) ;
#304 = CARTESIAN_POINT ( 'NONE',  ( 2.724159253807425500, 0.0000000000000000000, -3.657587758717472300E-014 ) ) ;
#305 = AXIS2_PLACEMENT_3D ( 'NONE', #257, #78, #131 ) ;
#306 = ADVANCED_FACE ( 'NONE', ( #331 ), #1, .F. ) ;
#307 = LINE ( 'NONE', #169, #114 ) ;
#308 = ADVANCED_FACE ( 'NONE', ( #213 ), #342, .T. ) ;
#309 = VERTEX_POINT ( 'NONE', #234 ) ;
#310 = CIRCLE ( 'NONE', #283, 12.70000000000001500 ) ;
#311 = ORIENTED_EDGE ( 'NONE', *, *, #299, .F. ) ;
#312 = VERTEX_POINT ( 'NONE', #269 ) ;
#313 = COLOUR_RGB ( '',1.000000000000000000, 1.000000000000000000, 1.000000000000000000 ) ;
#314 = DIRECTION ( 'NONE',  ( -1.000000000000000000, -0.0000000000000000000, -0.0000000000000000000 ) ) ;
#315 = CARTESIAN_POINT ( 'NONE',  ( 97.81986683306686800, 0.0000000000000000000, 0.0000000000000000000 ) ) ;
#316 = AXIS2_PLACEMENT_3D ( 'NONE', #47, #319, #258 ) ;
#317 = ORIENTED_EDGE ( 'NONE', *, *, #66, .T. ) ;
#318 = EDGE_CURVE ( 'NONE', #198, #242, #205, .T. ) ;
#319 = DIRECTION ( 'NONE',  ( 0.0000000000000000000, 1.000000000000000000, -0.0000000000000000000 ) ) ;
#320 = DIRECTION ( 'NONE',  ( 0.0000000000000000000, 0.0000000000000000000, -1.000000000000000000 ) ) ;
#321 = AXIS2_PLACEMENT_3D ( 'NONE', #50, #209, #238 ) ;
#322 = DIRECTION ( 'NONE',  ( 0.0000000000000000000, 0.0000000000000000000, 1.000000000000000000 ) ) ;
#323 = ORIENTED_EDGE ( 'NONE', *, *, #219, .F. ) ;
#324 = EDGE_LOOP ( 'NONE', ( #193, #120, #204 ) ) ;
#325 = CARTESIAN_POINT ( 'NONE',  ( 375.9741592538075000, 0.0000000000000000000, 0.0000000000000000000 ) ) ;
#326 = EDGE_LOOP ( 'NONE', ( #15, #110, #51 ) ) ;
#327 = DIRECTION ( 'NONE',  ( 0.0000000000000000000, 0.0000000000000000000, 1.000000000000000000 ) ) ;
#328 = DIRECTION ( 'NONE',  ( 0.0000000000000000000, -1.000000000000000000, 0.0000000000000000000 ) ) ;
#329 = ORIENTED_EDGE ( 'NONE', *, *, #161, .F. ) ;
#330 = ORIENTED_EDGE ( 'NONE', *, *, #144, .T. ) ;
#331 = FACE_OUTER_BOUND ( 'NONE', #282, .T. ) ;
#332 = AXIS2_PLACEMENT_3D ( 'NONE', #42, #160, #130 ) ;
#333 = EDGE_CURVE ( 'NONE', #27, #179, #143, .T. ) ;
#334 = DIRECTION ( 'NONE',  ( 0.0000000000000000000, 1.000000000000000000, 0.0000000000000000000 ) ) ;
#335 = ORIENTED_EDGE ( 'NONE', *, *, #318, .T. ) ;
#336 = ORIENTED_EDGE ( 'NONE', *, *, #245, .F. ) ;
#337 = SURFACE_STYLE_USAGE ( .BOTH. , #121 ) ;
#338 = APPLICATION_CONTEXT ( 'automotive_design' ) ;
#339 = CARTESIAN_POINT ( 'NONE',  ( 2.724159253807425500, 0.0000000000000000000, -3.657587758717472300E-014 ) ) ;
#340 = APPLICATION_PROTOCOL_DEFINITION ( 'draft international standard', 'automotive_design', 1998, #253 ) ;
#341 = VECTOR ( 'NONE', #267, 1000.000000000000000 ) ;
#342 = CYLINDRICAL_SURFACE ( 'NONE', #88, 12.69999999999995100 ) ;
#343 = FILL_AREA_STYLE_COLOUR ( '', #313 ) ;
#344 = UNCERTAINTY_MEASURE_WITH_UNIT (LENGTH_MEASURE( 1.000000000000000100E-005 ), #46, 'distance_accuracy_value', 'NONE');
#345 = PRODUCT ( '145168', '145168', '', ( #75 ) ) ;
#346 = CIRCLE ( 'NONE', #128, 95.94000000000011100 ) ;
#347 = DIRECTION ( 'NONE',  ( -1.000000000000000000, -0.0000000000000000000, -0.0000000000000000000 ) ) ;
ENDSEC;
END-ISO-10303-21;
