ISO-10303-21;
HEADER;
FILE_DESCRIPTION (( 'STEP AP214' ),
    '1' );
FILE_NAME ('145165.STEP',
    '2019-06-07T06:36:04',
    ( 'user' ),
    ( 'Î¢ÈíÖÐ¹ú' ),
    'SwSTEP 2.0',
    'SolidWorks 2016',
    '' );
FILE_SCHEMA (( 'AUTOMOTIVE_DESIGN' ));
ENDSEC;

DATA;
#1 = AXIS2_PLACEMENT_3D ( 'NONE', #178, #3, #321 ) ;
#2 = SURFACE_SIDE_STYLE ('',( #80 ) ) ;
#3 = DIRECTION ( 'NONE',  ( 0.0000000000000000000, -1.000000000000000000, -1.224646799147353200E-016 ) ) ;
#4 = CARTESIAN_POINT ( 'NONE',  ( 145.8102464302757000, 0.0000000000000000000, 0.0000000000000000000 ) ) ;
#5 = FACE_OUTER_BOUND ( 'NONE', #234, .T. ) ;
#6 = DIRECTION ( 'NONE',  ( -0.0000000000000000000, -1.000000000000000000, -0.0000000000000000000 ) ) ;
#7 = EDGE_CURVE ( 'NONE', #84, #313, #198, .T. ) ;
#8 = AXIS2_PLACEMENT_3D ( 'NONE', #105, #85, #165 ) ;
#9 = SPHERICAL_SURFACE ( 'NONE', #33, 38.02000000000000300 ) ;
#10 = SPHERICAL_SURFACE ( 'NONE', #218, 32.14000000000000100 ) ;
#11 = EDGE_LOOP ( 'NONE', ( #328, #186, #312, #205 ) ) ;
#12 = STYLED_ITEM ( 'NONE', ( #121 ), #227 ) ;
#13 = CIRCLE ( 'NONE', #1, 93.54000000000002000 ) ;
#14 = FACE_OUTER_BOUND ( 'NONE', #70, .T. ) ;
#15 = AXIS2_PLACEMENT_3D ( 'NONE', #153, #277, #160 ) ;
#16 = DIRECTION ( 'NONE',  ( 0.0000000000000000000, 0.0000000000000000000, 1.000000000000000000 ) ) ;
#17 = EDGE_LOOP ( 'NONE', ( #181, #246, #65, #175 ) ) ;
#18 =( NAMED_UNIT ( * ) SI_UNIT ( $, .STERADIAN. ) SOLID_ANGLE_UNIT ( ) );
#19 = AXIS2_PLACEMENT_3D ( 'NONE', #183, #315, #179 ) ;
#20 = CARTESIAN_POINT ( 'NONE',  ( 76.11024643027569400, 0.0000000000000000000, 7.905168044067128800E-015 ) ) ;
#21 = FACE_OUTER_BOUND ( 'NONE', #11, .T. ) ;
#22 = APPLICATION_CONTEXT ( 'automotive_design' ) ;
#23 = AXIS2_PLACEMENT_3D ( 'NONE', #71, #47, #296 ) ;
#24 = CARTESIAN_POINT ( 'NONE',  ( 12.45024643027568300, 0.0000000000000000000, -1.105140665658876700E-014 ) ) ;
#25 = FILL_AREA_STYLE_COLOUR ( '', #73 ) ;
#26 = CARTESIAN_POINT ( 'NONE',  ( 12.45024643027568300, 0.0000000000000000000, -1.105140665658876700E-014 ) ) ;
#27 = AXIS2_PLACEMENT_3D ( 'NONE', #76, #78, #142 ) ;
#28 = EDGE_CURVE ( 'NONE', #106, #36, #35, .T. ) ;
#29 = FACE_OUTER_BOUND ( 'NONE', #169, .T. ) ;
#30 = FACE_OUTER_BOUND ( 'NONE', #326, .T. ) ;
#31 = ORIENTED_EDGE ( 'NONE', *, *, #341, .T. ) ;
#32 = SURFACE_SIDE_STYLE ('',( #81 ) ) ;
#33 = AXIS2_PLACEMENT_3D ( 'NONE', #253, #117, #16 ) ;
#34 = FACE_OUTER_BOUND ( 'NONE', #101, .T. ) ;
#35 = CIRCLE ( 'NONE', #237, 12.69999999999999200 ) ;
#36 = VERTEX_POINT ( 'NONE', #299 ) ;
#37 = DIRECTION ( 'NONE',  ( 0.0000000000000000000, 0.0000000000000000000, 1.000000000000000000 ) ) ;
#38 = AXIS2_PLACEMENT_3D ( 'NONE', #83, #251, #149 ) ;
#39 = CARTESIAN_POINT ( 'NONE',  ( 76.11024643027569400, 0.0000000000000000000, 7.905168044067128800E-015 ) ) ;
#40 = CARTESIAN_POINT ( 'NONE',  ( 12.45024643027568300, 0.0000000000000000000, -1.105140665658876700E-014 ) ) ;
#41 = EDGE_LOOP ( 'NONE', ( #279, #92, #265 ) ) ;
#42 = CARTESIAN_POINT ( 'NONE',  ( 46.58585651278543300, -1.555301434917137800E-015, 12.70000000000000100 ) ) ;
#43 = COLOUR_RGB ( '',1.000000000000000000, 1.000000000000000000, 1.000000000000000000 ) ;
#44 = LINE ( 'NONE', #155, #297 ) ;
#45 = CIRCLE ( 'NONE', #151, 38.02000000000000300 ) ;
#46 =( GEOMETRIC_REPRESENTATION_CONTEXT ( 3 ) GLOBAL_UNCERTAINTY_ASSIGNED_CONTEXT ( ( #167 ) ) GLOBAL_UNIT_ASSIGNED_CONTEXT ( ( #334, #144, #108 ) ) REPRESENTATION_CONTEXT ( 'NONE', 'WORKASPACE' ) );
#47 = DIRECTION ( 'NONE',  ( -1.000000000000000000, -0.0000000000000000000, -0.0000000000000000000 ) ) ;
#48 = CYLINDRICAL_SURFACE ( 'NONE', #189, 12.69999999999999900 ) ;
#49 = ORIENTED_EDGE ( 'NONE', *, *, #28, .F. ) ;
#50 =( NAMED_UNIT ( * ) SI_UNIT ( $, .STERADIAN. ) SOLID_ANGLE_UNIT ( ) );
#51 = AXIS2_PLACEMENT_3D ( 'NONE', #195, #6, #258 ) ;
#52 =( NAMED_UNIT ( * ) SI_UNIT ( $, .STERADIAN. ) SOLID_ANGLE_UNIT ( ) );
#53 = ADVANCED_FACE ( 'NONE', ( #194 ), #329, .F. ) ;
#54 = DIRECTION ( 'NONE',  ( -1.000000000000000000, -0.0000000000000000000, -0.0000000000000000000 ) ) ;
#55 = ADVANCED_FACE ( 'NONE', ( #225 ), #222, .F. ) ;
#56 = AXIS2_PLACEMENT_3D ( 'NONE', #20, #255, #285 ) ;
#57 = ORIENTED_EDGE ( 'NONE', *, *, #267, .F. ) ;
#58 = DIRECTION ( 'NONE',  ( -1.000000000000000000, -0.0000000000000000000, -0.0000000000000000000 ) ) ;
#59 = FACE_OUTER_BOUND ( 'NONE', #172, .T. ) ;
#60 =( LENGTH_UNIT ( ) NAMED_UNIT ( * ) SI_UNIT ( .MILLI., .METRE. ) );
#61 = FACE_OUTER_BOUND ( 'NONE', #316, .T. ) ;
#62 = PRODUCT_DEFINITION ( 'Î´Öª', '', #295, #191 ) ;
#63 = CARTESIAN_POINT ( 'NONE',  ( -0.5519199926577972300, 0.0000000000000000000, 12.69999999999999200 ) ) ;
#64 = ORIENTED_EDGE ( 'NONE', *, *, #292, .T. ) ;
#65 = ORIENTED_EDGE ( 'NONE', *, *, #306, .T. ) ;
#66 = DIRECTION ( 'NONE',  ( 0.0000000000000000000, -1.224646799147353500E-016, 1.000000000000000000 ) ) ;
#67 = MECHANICAL_DESIGN_GEOMETRIC_PRESENTATION_REPRESENTATION (  '', ( #302 ), #262 ) ;
#68 = FACE_OUTER_BOUND ( 'NONE', #17, .T. ) ;
#69 = SPHERICAL_SURFACE ( 'NONE', #250, 38.02000000000000300 ) ;
#70 = EDGE_LOOP ( 'NONE', ( #308, #206, #266, #57 ) ) ;
#71 = CARTESIAN_POINT ( 'NONE',  ( 46.58585651278544000, 0.0000000000000000000, 0.0000000000000000000 ) ) ;
#72 = CARTESIAN_POINT ( 'NONE',  ( 12.45024643027568300, 0.0000000000000000000, -1.105140665658876700E-014 ) ) ;
#73 = COLOUR_RGB ( '',1.000000000000000000, 1.000000000000000000, 1.000000000000000000 ) ;
#74 = CARTESIAN_POINT ( 'NONE',  ( 50.47024643027568700, 0.0000000000000000000, -8.723353091409647400E-015 ) ) ;
#75 = STYLED_ITEM ( 'NONE', ( #244 ), #182 ) ;
#76 = CARTESIAN_POINT ( 'NONE',  ( -0.5519199926577972300, 0.0000000000000000000, 0.0000000000000000000 ) ) ;
#77 = DIRECTION ( 'NONE',  ( 0.0000000000000000000, -1.000000000000000000, -1.224646799147353200E-016 ) ) ;
#78 = DIRECTION ( 'NONE',  ( -1.000000000000000000, -0.0000000000000000000, -0.0000000000000000000 ) ) ;
#79 = CARTESIAN_POINT ( 'NONE',  ( 145.8102464302757000, 0.0000000000000000000, 0.0000000000000000000 ) ) ;
#80 = SURFACE_STYLE_FILL_AREA ( #346 ) ;
#81 = SURFACE_STYLE_FILL_AREA ( #309 ) ;
#82 = DIRECTION ( 'NONE',  ( 0.0000000000000000000, 0.0000000000000000000, 1.000000000000000000 ) ) ;
#83 = CARTESIAN_POINT ( 'NONE',  ( 48.28640693890161400, 0.0000000000000000000, 0.0000000000000000000 ) ) ;
#84 = VERTEX_POINT ( 'NONE', #42 ) ;
#85 = DIRECTION ( 'NONE',  ( -0.0000000000000000000, 1.000000000000000000, 1.224646799147353200E-016 ) ) ;
#86 = EDGE_CURVE ( 'NONE', #106, #303, #240, .T. ) ;
#87 = ADVANCED_FACE ( 'NONE', ( #14 ), #232, .T. ) ;
#88 = ORIENTED_EDGE ( 'NONE', *, *, #126, .F. ) ;
#89 = CARTESIAN_POINT ( 'NONE',  ( 12.45024643027568300, 0.0000000000000000000, -1.105140665658876700E-014 ) ) ;
#90 = CIRCLE ( 'NONE', #23, 12.69999999999999900 ) ;
#91 = AXIS2_PLACEMENT_3D ( 'NONE', #145, #223, #219 ) ;
#92 = ORIENTED_EDGE ( 'NONE', *, *, #254, .T. ) ;
#93 = CARTESIAN_POINT ( 'NONE',  ( 48.28640693890161400, 0.0000000000000000000, 12.69999999999998300 ) ) ;
#94 = DIRECTION ( 'NONE',  ( 0.0000000000000000000, 0.0000000000000000000, 1.000000000000000000 ) ) ;
#95 = CIRCLE ( 'NONE', #91, 12.69999999999999200 ) ;
#96 = ORIENTED_EDGE ( 'NONE', *, *, #126, .T. ) ;
#97 = DIRECTION ( 'NONE',  ( 0.0000000000000000000, 0.0000000000000000000, 1.000000000000000000 ) ) ;
#98 = AXIS2_PLACEMENT_3D ( 'NONE', #146, #289, #304 ) ;
#99 = CIRCLE ( 'NONE', #276, 12.70000000000000100 ) ;
#100 = DIRECTION ( 'NONE',  ( 0.0000000000000000000, 0.0000000000000000000, -1.000000000000000000 ) ) ;
#101 = EDGE_LOOP ( 'NONE', ( #148, #31, #130 ) ) ;
#102 = DIRECTION ( 'NONE',  ( -0.0000000000000000000, -1.000000000000000000, -0.0000000000000000000 ) ) ;
#103 = MECHANICAL_DESIGN_GEOMETRIC_PRESENTATION_REPRESENTATION (  '', ( #12 ), #116 ) ;
#104 = EDGE_CURVE ( 'NONE', #298, #138, #114, .T. ) ;
#105 = CARTESIAN_POINT ( 'NONE',  ( 12.45024643027568300, 0.0000000000000000000, -1.105140665658876700E-014 ) ) ;
#106 = VERTEX_POINT ( 'NONE', #168 ) ;
#107 = DIRECTION ( 'NONE',  ( 0.0000000000000000000, 1.000000000000000000, -0.0000000000000000000 ) ) ;
#108 =( NAMED_UNIT ( * ) SI_UNIT ( $, .STERADIAN. ) SOLID_ANGLE_UNIT ( ) );
#109 = DIRECTION ( 'NONE',  ( -1.000000000000000000, -0.0000000000000000000, -0.0000000000000000000 ) ) ;
#110 = SURFACE_STYLE_FILL_AREA ( #274 ) ;
#111 = SURFACE_STYLE_USAGE ( .BOTH. , #271 ) ;
#112 = ADVANCED_FACE ( 'NONE', ( #30 ), #10, .T. ) ;
#113 = VERTEX_POINT ( 'NONE', #158 ) ;
#114 = CIRCLE ( 'NONE', #136, 12.70000000000000100 ) ;
#115 = DIRECTION ( 'NONE',  ( -0.0000000000000000000, 1.000000000000000000, 1.224646799147353200E-016 ) ) ;
#116 =( GEOMETRIC_REPRESENTATION_CONTEXT ( 3 ) GLOBAL_UNCERTAINTY_ASSIGNED_CONTEXT ( ( #322 ) ) GLOBAL_UNIT_ASSIGNED_CONTEXT ( ( #185, #317, #18 ) ) REPRESENTATION_CONTEXT ( 'NONE', 'WORKASPACE' ) );
#117 = DIRECTION ( 'NONE',  ( 0.0000000000000000000, 1.000000000000000000, 0.0000000000000000000 ) ) ;
#118 = EDGE_CURVE ( 'NONE', #106, #113, #44, .T. ) ;
#119 = ADVANCED_FACE ( 'NONE', ( #21 ), #174, .T. ) ;
#120 = DIRECTION ( 'NONE',  ( 0.0000000000000000000, 1.000000000000000000, 0.0000000000000000000 ) ) ;
#121 = PRESENTATION_STYLE_ASSIGNMENT (( #310 ) ) ;
#122 = CARTESIAN_POINT ( 'NONE',  ( -0.8160621761658039000, 0.0000000000000000000, 0.0000000000000000000 ) ) ;
#123 = CIRCLE ( 'NONE', #241, 32.14000000000000100 ) ;
#124 = ORIENTED_EDGE ( 'NONE', *, *, #263, .T. ) ;
#125 = ADVANCED_FACE ( 'NONE', ( #5 ), #9, .T. ) ;
#126 = EDGE_CURVE ( 'NONE', #313, #190, #199, .T. ) ;
#127 = CARTESIAN_POINT ( 'NONE',  ( -0.8160621761658039000, 1.555301434917138400E-015, -12.69999999999999900 ) ) ;
#128 = CIRCLE ( 'NONE', #177, 12.69999999999999200 ) ;
#129 = MECHANICAL_DESIGN_GEOMETRIC_PRESENTATION_REPRESENTATION (  '', ( #75 ), #170 ) ;
#130 = ORIENTED_EDGE ( 'NONE', *, *, #104, .F. ) ;
#131 = VECTOR ( 'NONE', #109, 1000.000000000000000 ) ;
#132 = DIRECTION ( 'NONE',  ( -1.000000000000000000, -0.0000000000000000000, -0.0000000000000000000 ) ) ;
#133 = CIRCLE ( 'NONE', #38, 12.69999999999999200 ) ;
#134 = PRESENTATION_STYLE_ASSIGNMENT (( #211 ) ) ;
#135 = SPHERICAL_SURFACE ( 'NONE', #216, 93.54000000000002000 ) ;
#136 = AXIS2_PLACEMENT_3D ( 'NONE', #330, #156, #97 ) ;
#137 = EDGE_CURVE ( 'NONE', #298, #313, #159, .T. ) ;
#138 = VERTEX_POINT ( 'NONE', #236 ) ;
#139 = DIRECTION ( 'NONE',  ( -1.000000000000000000, -0.0000000000000000000, -0.0000000000000000000 ) ) ;
#140 = ORIENTED_EDGE ( 'NONE', *, *, #292, .F. ) ;
#141 = VERTEX_POINT ( 'NONE', #93 ) ;
#142 = DIRECTION ( 'NONE',  ( 0.0000000000000000000, 0.0000000000000000000, 1.000000000000000000 ) ) ;
#143 = PRESENTATION_LAYER_ASSIGNMENT (  '', '', ( #302 ) ) ;
#144 =( NAMED_UNIT ( * ) PLANE_ANGLE_UNIT ( ) SI_UNIT ( $, .RADIAN. ) );
#145 = CARTESIAN_POINT ( 'NONE',  ( 48.28640693890161400, 0.0000000000000000000, 0.0000000000000000000 ) ) ;
#146 = CARTESIAN_POINT ( 'NONE',  ( -0.8160621761658039000, 0.0000000000000000000, 0.0000000000000000000 ) ) ;
#147 = DIRECTION ( 'NONE',  ( 0.0000000000000000000, 0.0000000000000000000, 1.000000000000000000 ) ) ;
#148 = ORIENTED_EDGE ( 'NONE', *, *, #161, .F. ) ;
#149 = DIRECTION ( 'NONE',  ( 0.0000000000000000000, 0.0000000000000000000, 1.000000000000000000 ) ) ;
#150 = ORIENTED_EDGE ( 'NONE', *, *, #118, .T. ) ;
#151 = AXIS2_PLACEMENT_3D ( 'NONE', #24, #226, #171 ) ;
#152 = ADVANCED_FACE ( 'NONE', ( #34 ), #204, .T. ) ;
#153 = CARTESIAN_POINT ( 'NONE',  ( -0.5519199926577972300, 0.0000000000000000000, 0.0000000000000000000 ) ) ;
#154 = ORIENTED_EDGE ( 'NONE', *, *, #7, .T. ) ;
#155 = CARTESIAN_POINT ( 'NONE',  ( -0.5519199926577972300, 1.555301434917137800E-015, -12.69999999999999200 ) ) ;
#156 = DIRECTION ( 'NONE',  ( -1.000000000000000000, -0.0000000000000000000, -0.0000000000000000000 ) ) ;
#157 = SHAPE_DEFINITION_REPRESENTATION ( #230, #182 ) ;
#158 = CARTESIAN_POINT ( 'NONE',  ( 48.28640693890161400, 1.555301434917136700E-015, -12.69999999999999400 ) ) ;
#159 = LINE ( 'NONE', #127, #212 ) ;
#160 = DIRECTION ( 'NONE',  ( 0.0000000000000000000, 0.0000000000000000000, 1.000000000000000000 ) ) ;
#161 = EDGE_CURVE ( 'NONE', #209, #298, #278, .T. ) ;
#162 =( NAMED_UNIT ( * ) PLANE_ANGLE_UNIT ( ) SI_UNIT ( $, .RADIAN. ) );
#163 = CIRCLE ( 'NONE', #256, 38.02000000000000300 ) ;
#164 = ORIENTED_EDGE ( 'NONE', *, *, #338, .T. ) ;
#165 = DIRECTION ( 'NONE',  ( 0.0000000000000000000, -1.224646799147353500E-016, 1.000000000000000000 ) ) ;
#166 = AXIS2_PLACEMENT_3D ( 'NONE', #337, #94, #281 ) ;
#167 = UNCERTAINTY_MEASURE_WITH_UNIT (LENGTH_MEASURE( 1.000000000000000100E-005 ), #334, 'distance_accuracy_value', 'NONE');
#168 = CARTESIAN_POINT ( 'NONE',  ( 53.13640114477993800, 0.0000000000000000000, -12.69999999999995700 ) ) ;
#169 = EDGE_LOOP ( 'NONE', ( #140, #154, #96 ) ) ;
#170 =( GEOMETRIC_REPRESENTATION_CONTEXT ( 3 ) GLOBAL_UNCERTAINTY_ASSIGNED_CONTEXT ( ( #192 ) ) GLOBAL_UNIT_ASSIGNED_CONTEXT ( ( #60, #162, #50 ) ) REPRESENTATION_CONTEXT ( 'NONE', 'WORKASPACE' ) );
#171 = DIRECTION ( 'NONE',  ( 0.0000000000000000000, 0.0000000000000000000, -1.000000000000000000 ) ) ;
#172 = EDGE_LOOP ( 'NONE', ( #347, #150, #288, #293 ) ) ;
#173 = VECTOR ( 'NONE', #132, 1000.000000000000000 ) ;
#174 = CYLINDRICAL_SURFACE ( 'NONE', #98, 12.69999999999999900 ) ;
#175 = ORIENTED_EDGE ( 'NONE', *, *, #333, .F. ) ;
#176 = CLOSED_SHELL ( 'NONE', ( #336, #233, #228, #55, #53, #87 ) ) ;
#177 = AXIS2_PLACEMENT_3D ( 'NONE', #193, #58, #200 ) ;
#178 = CARTESIAN_POINT ( 'NONE',  ( 145.8102464302757000, 0.0000000000000000000, 0.0000000000000000000 ) ) ;
#179 = DIRECTION ( 'NONE',  ( 0.0000000000000000000, 0.0000000000000000000, 1.000000000000000000 ) ) ;
#180 = PRODUCT ( '145165', '145165', '', ( #260 ) ) ;
#181 = ORIENTED_EDGE ( 'NONE', *, *, #137, .F. ) ;
#182 = ADVANCED_BREP_SHAPE_REPRESENTATION ( '145165', ( #227, #214, #166 ), #46 ) ;
#183 = CARTESIAN_POINT ( 'NONE',  ( 46.58585651278544000, 0.0000000000000000000, 0.0000000000000000000 ) ) ;
#184 = AXIS2_PLACEMENT_3D ( 'NONE', #79, #270, #147 ) ;
#185 =( LENGTH_UNIT ( ) NAMED_UNIT ( * ) SI_UNIT ( .MILLI., .METRE. ) );
#186 = ORIENTED_EDGE ( 'NONE', *, *, #137, .T. ) ;
#187 = CARTESIAN_POINT ( 'NONE',  ( 52.27024643027568400, 0.0000000000000000000, -5.727673079612172000E-015 ) ) ;
#188 = CARTESIAN_POINT ( 'NONE',  ( 48.28640693890160000, 0.0000000000000000000, 0.0000000000000000000 ) ) ;
#189 = AXIS2_PLACEMENT_3D ( 'NONE', #122, #264, #82 ) ;
#190 = VERTEX_POINT ( 'NONE', #283 ) ;
#191 = PRODUCT_DEFINITION_CONTEXT ( 'detailed design', #201, 'design' ) ;
#192 = UNCERTAINTY_MEASURE_WITH_UNIT (LENGTH_MEASURE( 1.000000000000000100E-005 ), #60, 'distance_accuracy_value', 'NONE');
#193 = CARTESIAN_POINT ( 'NONE',  ( 53.13640114477994600, 0.0000000000000000000, 0.0000000000000000000 ) ) ;
#194 = FACE_OUTER_BOUND ( 'NONE', #291, .T. ) ;
#195 = CARTESIAN_POINT ( 'NONE',  ( 145.8102464302757000, 0.0000000000000000000, 0.0000000000000000000 ) ) ;
#196 = PRESENTATION_LAYER_ASSIGNMENT (  '', '', ( #75 ) ) ;
#197 = FILL_AREA_STYLE_COLOUR ( '', #284 ) ;
#198 = CIRCLE ( 'NONE', #19, 12.69999999999999900 ) ;
#199 = CIRCLE ( 'NONE', #300, 32.14000000000000100 ) ;
#200 = DIRECTION ( 'NONE',  ( 0.0000000000000000000, 0.0000000000000000000, 1.000000000000000000 ) ) ;
#201 = APPLICATION_CONTEXT ( 'automotive_design' ) ;
#202 = UNCERTAINTY_MEASURE_WITH_UNIT (LENGTH_MEASURE( 1.000000000000000100E-005 ), #273, 'distance_accuracy_value', 'NONE');
#203 = ADVANCED_FACE ( 'NONE', ( #29 ), #325, .T. ) ;
#204 = SPHERICAL_SURFACE ( 'NONE', #345, 38.02000000000000300 ) ;
#205 = ORIENTED_EDGE ( 'NONE', *, *, #306, .F. ) ;
#206 = ORIENTED_EDGE ( 'NONE', *, *, #28, .T. ) ;
#207 = DIRECTION ( 'NONE',  ( 0.0000000000000000000, 1.224646799147353200E-016, -1.000000000000000000 ) ) ;
#208 = ADVANCED_FACE ( 'NONE', ( #68 ), #48, .T. ) ;
#209 = VERTEX_POINT ( 'NONE', #74 ) ;
#210 = DIRECTION ( 'NONE',  ( 0.0000000000000000000, -1.000000000000000000, 0.0000000000000000000 ) ) ;
#211 = SURFACE_STYLE_USAGE ( .BOTH. , #2 ) ;
#212 = VECTOR ( 'NONE', #54, 1000.000000000000000 ) ;
#213 = DIRECTION ( 'NONE',  ( 0.0000000000000000000, 0.0000000000000000000, -1.000000000000000000 ) ) ;
#214 = MANIFOLD_SOLID_BREP ( 'Ðý×ª2', #176 ) ;
#215 = ORIENTED_EDGE ( 'NONE', *, *, #338, .F. ) ;
#216 = AXIS2_PLACEMENT_3D ( 'NONE', #4, #102, #247 ) ;
#217 = CARTESIAN_POINT ( 'NONE',  ( 76.11024643027569400, 0.0000000000000000000, 7.905168044067128800E-015 ) ) ;
#218 = AXIS2_PLACEMENT_3D ( 'NONE', #217, #282, #100 ) ;
#219 = DIRECTION ( 'NONE',  ( 0.0000000000000000000, 0.0000000000000000000, 1.000000000000000000 ) ) ;
#220 = APPLICATION_PROTOCOL_DEFINITION ( 'draft international standard', 'automotive_design', 1998, #201 ) ;
#221 = VERTEX_POINT ( 'NONE', #287 ) ;
#222 = SPHERICAL_SURFACE ( 'NONE', #343, 38.02000000000000300 ) ;
#223 = DIRECTION ( 'NONE',  ( -1.000000000000000000, -0.0000000000000000000, -0.0000000000000000000 ) ) ;
#224 = DIRECTION ( 'NONE',  ( 0.0000000000000000000, 0.0000000000000000000, 1.000000000000000000 ) ) ;
#225 = FACE_OUTER_BOUND ( 'NONE', #268, .T. ) ;
#226 = DIRECTION ( 'NONE',  ( 0.0000000000000000000, -1.000000000000000000, 0.0000000000000000000 ) ) ;
#227 = MANIFOLD_SOLID_BREP ( 'Ðý×ª1', #335 ) ;
#228 = ADVANCED_FACE ( 'NONE', ( #61 ), #69, .F. ) ;
#229 = ORIENTED_EDGE ( 'NONE', *, *, #161, .T. ) ;
#230 = PRODUCT_DEFINITION_SHAPE ( 'NONE', 'NONE',  #62 ) ;
#231 = APPLICATION_PROTOCOL_DEFINITION ( 'draft international standard', 'automotive_design', 1998, #22 ) ;
#232 = CYLINDRICAL_SURFACE ( 'NONE', #15, 12.69999999999999200 ) ;
#233 = ADVANCED_FACE ( 'NONE', ( #290 ), #135, .F. ) ;
#234 = EDGE_LOOP ( 'NONE', ( #332, #229, #339 ) ) ;
#235 = FILL_AREA_STYLE_COLOUR ( '', #43 ) ;
#236 = CARTESIAN_POINT ( 'NONE',  ( 48.28640693890160000, 0.0000000000000000000, 12.70000000000000100 ) ) ;
#237 = AXIS2_PLACEMENT_3D ( 'NONE', #252, #344, #257 ) ;
#238 = LINE ( 'NONE', #63, #131 ) ;
#239 = DIRECTION ( 'NONE',  ( 0.0000000000000000000, 1.000000000000000000, 0.0000000000000000000 ) ) ;
#240 = CIRCLE ( 'NONE', #184, 93.54000000000002000 ) ;
#241 = AXIS2_PLACEMENT_3D ( 'NONE', #39, #77, #207 ) ;
#242 = DIRECTION ( 'NONE',  ( 0.0000000000000000000, 1.000000000000000000, 0.0000000000000000000 ) ) ;
#243 = EDGE_CURVE ( 'NONE', #138, #298, #99, .T. ) ;
#244 = PRESENTATION_STYLE_ASSIGNMENT (( #111 ) ) ;
#245 = ORIENTED_EDGE ( 'NONE', *, *, #333, .T. ) ;
#246 = ORIENTED_EDGE ( 'NONE', *, *, #104, .T. ) ;
#247 = DIRECTION ( 'NONE',  ( 0.0000000000000000000, 0.0000000000000000000, -1.000000000000000000 ) ) ;
#248 = EDGE_CURVE ( 'NONE', #36, #141, #238, .T. ) ;
#249 = DIRECTION ( 'NONE',  ( -1.000000000000000000, -0.0000000000000000000, -0.0000000000000000000 ) ) ;
#250 = AXIS2_PLACEMENT_3D ( 'NONE', #26, #242, #37 ) ;
#251 = DIRECTION ( 'NONE',  ( -1.000000000000000000, -0.0000000000000000000, -0.0000000000000000000 ) ) ;
#252 = CARTESIAN_POINT ( 'NONE',  ( 53.13640114477994600, 0.0000000000000000000, 0.0000000000000000000 ) ) ;
#253 = CARTESIAN_POINT ( 'NONE',  ( 12.45024643027568300, 0.0000000000000000000, -1.105140665658876700E-014 ) ) ;
#254 = EDGE_CURVE ( 'NONE', #36, #303, #13, .T. ) ;
#255 = DIRECTION ( 'NONE',  ( -0.0000000000000000000, -1.000000000000000000, -0.0000000000000000000 ) ) ;
#256 = AXIS2_PLACEMENT_3D ( 'NONE', #89, #210, #213 ) ;
#257 = DIRECTION ( 'NONE',  ( 0.0000000000000000000, 0.0000000000000000000, 1.000000000000000000 ) ) ;
#258 = DIRECTION ( 'NONE',  ( 0.0000000000000000000, 0.0000000000000000000, -1.000000000000000000 ) ) ;
#259 = ORIENTED_EDGE ( 'NONE', *, *, #254, .F. ) ;
#260 = PRODUCT_CONTEXT ( 'NONE', #22, 'mechanical' ) ;
#261 = DIRECTION ( 'NONE',  ( 0.0000000000000000000, 0.0000000000000000000, 1.000000000000000000 ) ) ;
#262 =( GEOMETRIC_REPRESENTATION_CONTEXT ( 3 ) GLOBAL_UNCERTAINTY_ASSIGNED_CONTEXT ( ( #202 ) ) GLOBAL_UNIT_ASSIGNED_CONTEXT ( ( #273, #314, #52 ) ) REPRESENTATION_CONTEXT ( 'NONE', 'WORKASPACE' ) );
#263 = EDGE_CURVE ( 'NONE', #141, #113, #95, .T. ) ;
#264 = DIRECTION ( 'NONE',  ( -1.000000000000000000, -0.0000000000000000000, -0.0000000000000000000 ) ) ;
#265 = ORIENTED_EDGE ( 'NONE', *, *, #86, .F. ) ;
#266 = ORIENTED_EDGE ( 'NONE', *, *, #248, .T. ) ;
#267 = EDGE_CURVE ( 'NONE', #113, #141, #133, .T. ) ;
#268 = EDGE_LOOP ( 'NONE', ( #307, #164, #124 ) ) ;
#269 = AXIS2_PLACEMENT_3D ( 'NONE', #72, #115, #66 ) ;
#270 = DIRECTION ( 'NONE',  ( 0.0000000000000000000, 1.000000000000000000, -0.0000000000000000000 ) ) ;
#271 = SURFACE_SIDE_STYLE ('',( #110 ) ) ;
#272 = CIRCLE ( 'NONE', #8, 38.02000000000000300 ) ;
#273 =( LENGTH_UNIT ( ) NAMED_UNIT ( * ) SI_UNIT ( .MILLI., .METRE. ) );
#274 = FILL_AREA_STYLE ('',( #197 ) ) ;
#275 = ORIENTED_EDGE ( 'NONE', *, *, #267, .T. ) ;
#276 = AXIS2_PLACEMENT_3D ( 'NONE', #188, #139, #294 ) ;
#277 = DIRECTION ( 'NONE',  ( -1.000000000000000000, -0.0000000000000000000, -0.0000000000000000000 ) ) ;
#278 = CIRCLE ( 'NONE', #269, 38.02000000000000300 ) ;
#279 = ORIENTED_EDGE ( 'NONE', *, *, #286, .F. ) ;
#280 = CARTESIAN_POINT ( 'NONE',  ( 48.28640693890160000, 1.555301434917138800E-015, -12.70000000000000300 ) ) ;
#281 = DIRECTION ( 'NONE',  ( 1.000000000000000000, 0.0000000000000000000, 0.0000000000000000000 ) ) ;
#282 = DIRECTION ( 'NONE',  ( -0.0000000000000000000, -1.000000000000000000, -0.0000000000000000000 ) ) ;
#283 = CARTESIAN_POINT ( 'NONE',  ( 43.97024643027569400, 0.0000000000000000000, 5.937160637837332600E-015 ) ) ;
#284 = COLOUR_RGB ( '',1.000000000000000000, 1.000000000000000000, 1.000000000000000000 ) ;
#285 = DIRECTION ( 'NONE',  ( 0.0000000000000000000, 0.0000000000000000000, -1.000000000000000000 ) ) ;
#286 = EDGE_CURVE ( 'NONE', #36, #106, #128, .T. ) ;
#287 = CARTESIAN_POINT ( 'NONE',  ( 50.47024643027568700, 0.0000000000000000000, -8.723353091409647400E-015 ) ) ;
#288 = ORIENTED_EDGE ( 'NONE', *, *, #263, .F. ) ;
#289 = DIRECTION ( 'NONE',  ( -1.000000000000000000, -0.0000000000000000000, -0.0000000000000000000 ) ) ;
#290 = FACE_OUTER_BOUND ( 'NONE', #41, .T. ) ;
#291 = EDGE_LOOP ( 'NONE', ( #259, #49, #301 ) ) ;
#292 = EDGE_CURVE ( 'NONE', #84, #190, #123, .T. ) ;
#293 = ORIENTED_EDGE ( 'NONE', *, *, #248, .F. ) ;
#294 = DIRECTION ( 'NONE',  ( 0.0000000000000000000, 0.0000000000000000000, 1.000000000000000000 ) ) ;
#295 = PRODUCT_DEFINITION_FORMATION_WITH_SPECIFIED_SOURCE ( 'ÈÎºÎ', '', #180, .NOT_KNOWN. ) ;
#296 = DIRECTION ( 'NONE',  ( 0.0000000000000000000, 0.0000000000000000000, 1.000000000000000000 ) ) ;
#297 = VECTOR ( 'NONE', #249, 1000.000000000000000 ) ;
#298 = VERTEX_POINT ( 'NONE', #280 ) ;
#299 = CARTESIAN_POINT ( 'NONE',  ( 53.13640114477993800, -1.555301434917133300E-015, 12.69999999999995700 ) ) ;
#300 = AXIS2_PLACEMENT_3D ( 'NONE', #327, #107, #261 ) ;
#301 = ORIENTED_EDGE ( 'NONE', *, *, #86, .T. ) ;
#302 = STYLED_ITEM ( 'NONE', ( #134 ), #214 ) ;
#303 = VERTEX_POINT ( 'NONE', #187 ) ;
#304 = DIRECTION ( 'NONE',  ( 0.0000000000000000000, 0.0000000000000000000, 1.000000000000000000 ) ) ;
#305 = ORIENTED_EDGE ( 'NONE', *, *, #324, .T. ) ;
#306 = EDGE_CURVE ( 'NONE', #138, #84, #320, .T. ) ;
#307 = ORIENTED_EDGE ( 'NONE', *, *, #324, .F. ) ;
#308 = ORIENTED_EDGE ( 'NONE', *, *, #118, .F. ) ;
#309 = FILL_AREA_STYLE ('',( #25 ) ) ;
#310 = SURFACE_STYLE_USAGE ( .BOTH. , #32 ) ;
#311 = DIRECTION ( 'NONE',  ( 0.0000000000000000000, 0.0000000000000000000, 1.000000000000000000 ) ) ;
#312 = ORIENTED_EDGE ( 'NONE', *, *, #7, .F. ) ;
#313 = VERTEX_POINT ( 'NONE', #331 ) ;
#314 =( NAMED_UNIT ( * ) PLANE_ANGLE_UNIT ( ) SI_UNIT ( $, .RADIAN. ) );
#315 = DIRECTION ( 'NONE',  ( -1.000000000000000000, -0.0000000000000000000, -0.0000000000000000000 ) ) ;
#316 = EDGE_LOOP ( 'NONE', ( #215, #305, #275 ) ) ;
#317 =( NAMED_UNIT ( * ) PLANE_ANGLE_UNIT ( ) SI_UNIT ( $, .RADIAN. ) );
#318 = PRESENTATION_LAYER_ASSIGNMENT (  '', '', ( #12 ) ) ;
#319 = CARTESIAN_POINT ( 'NONE',  ( 12.45024643027568300, 0.0000000000000000000, -1.105140665658876700E-014 ) ) ;
#320 = LINE ( 'NONE', #342, #173 ) ;
#321 = DIRECTION ( 'NONE',  ( 0.0000000000000000000, 1.224646799147353200E-016, -1.000000000000000000 ) ) ;
#322 = UNCERTAINTY_MEASURE_WITH_UNIT (LENGTH_MEASURE( 1.000000000000000100E-005 ), #185, 'distance_accuracy_value', 'NONE');
#323 = PRODUCT_RELATED_PRODUCT_CATEGORY ( 'part', '', ( #180 ) ) ;
#324 = EDGE_CURVE ( 'NONE', #221, #113, #272, .T. ) ;
#325 = SPHERICAL_SURFACE ( 'NONE', #56, 32.14000000000000100 ) ;
#326 = EDGE_LOOP ( 'NONE', ( #245, #64, #88 ) ) ;
#327 = CARTESIAN_POINT ( 'NONE',  ( 76.11024643027569400, 0.0000000000000000000, 7.905168044067128800E-015 ) ) ;
#328 = ORIENTED_EDGE ( 'NONE', *, *, #243, .T. ) ;
#329 = SPHERICAL_SURFACE ( 'NONE', #51, 93.54000000000002000 ) ;
#330 = CARTESIAN_POINT ( 'NONE',  ( 48.28640693890160000, 0.0000000000000000000, 0.0000000000000000000 ) ) ;
#331 = CARTESIAN_POINT ( 'NONE',  ( 46.58585651278543300, 0.0000000000000000000, -12.69999999999999200 ) ) ;
#332 = ORIENTED_EDGE ( 'NONE', *, *, #341, .F. ) ;
#333 = EDGE_CURVE ( 'NONE', #313, #84, #90, .T. ) ;
#334 =( LENGTH_UNIT ( ) NAMED_UNIT ( * ) SI_UNIT ( .MILLI., .METRE. ) );
#335 = CLOSED_SHELL ( 'NONE', ( #125, #119, #112, #203, #208, #152 ) ) ;
#336 = ADVANCED_FACE ( 'NONE', ( #59 ), #340, .T. ) ;
#337 = CARTESIAN_POINT ( 'NONE',  ( 0.0000000000000000000, 0.0000000000000000000, 0.0000000000000000000 ) ) ;
#338 = EDGE_CURVE ( 'NONE', #221, #141, #163, .T. ) ;
#339 = ORIENTED_EDGE ( 'NONE', *, *, #243, .F. ) ;
#340 = CYLINDRICAL_SURFACE ( 'NONE', #27, 12.69999999999999200 ) ;
#341 = EDGE_CURVE ( 'NONE', #209, #138, #45, .T. ) ;
#342 = CARTESIAN_POINT ( 'NONE',  ( -0.8160621761658039000, 0.0000000000000000000, 12.69999999999999900 ) ) ;
#343 = AXIS2_PLACEMENT_3D ( 'NONE', #40, #120, #311 ) ;
#344 = DIRECTION ( 'NONE',  ( -1.000000000000000000, -0.0000000000000000000, -0.0000000000000000000 ) ) ;
#345 = AXIS2_PLACEMENT_3D ( 'NONE', #319, #239, #224 ) ;
#346 = FILL_AREA_STYLE ('',( #235 ) ) ;
#347 = ORIENTED_EDGE ( 'NONE', *, *, #286, .T. ) ;
ENDSEC;
END-ISO-10303-21;
