ISO-10303-21;
HEADER;
FILE_DESCRIPTION (( 'STEP AP214' ),
    '1' );
FILE_NAME ('145150.STEP',
    '2019-06-06T06:23:03',
    ( 'user' ),
    ( 'Î¢ÈíÖÐ¹ú' ),
    'SwSTEP 2.0',
    'SolidWorks 2016',
    '' );
FILE_SCHEMA (( 'AUTOMOTIVE_DESIGN' ));
ENDSEC;

DATA;
#1 = SURFACE_STYLE_USAGE ( .BOTH. , #122 ) ;
#2 = ORIENTED_EDGE ( 'NONE', *, *, #99, .F. ) ;
#3 = ORIENTED_EDGE ( 'NONE', *, *, #99, .T. ) ;
#4 = AXIS2_PLACEMENT_3D ( 'NONE', #20, #178, #44 ) ;
#5 = CARTESIAN_POINT ( 'NONE',  ( 22.26472546388555800, 0.0000000000000000000, -4.000000000000002700 ) ) ;
#6 = DIRECTION ( 'NONE',  ( -0.0000000000000000000, 1.000000000000000000, 1.224646799147353200E-016 ) ) ;
#7 = VERTEX_POINT ( 'NONE', #60 ) ;
#8 = DIRECTION ( 'NONE',  ( 0.0000000000000000000, 0.0000000000000000000, 1.000000000000000000 ) ) ;
#9 = VERTEX_POINT ( 'NONE', #5 ) ;
#10 = EDGE_CURVE ( 'NONE', #314, #275, #246, .T. ) ;
#11 = COLOUR_RGB ( '',1.000000000000000000, 1.000000000000000000, 1.000000000000000000 ) ;
#12 = DIRECTION ( 'NONE',  ( 0.0000000000000000000, 0.0000000000000000000, 1.000000000000000000 ) ) ;
#13 = CARTESIAN_POINT ( 'NONE',  ( 16.46125990315656300, 0.0000000000000000000, 8.919463054943386000E-030 ) ) ;
#14 = EDGE_LOOP ( 'NONE', ( #70, #179, #279 ) ) ;
#15 = CIRCLE ( 'NONE', #335, 4.000000000000000000 ) ;
#16 = UNCERTAINTY_MEASURE_WITH_UNIT (LENGTH_MEASURE( 1.000000000000000100E-005 ), #214, 'distance_accuracy_value', 'NONE');
#17 = EDGE_CURVE ( 'NONE', #314, #203, #176, .T. ) ;
#18 = ORIENTED_EDGE ( 'NONE', *, *, #59, .F. ) ;
#19 = FACE_OUTER_BOUND ( 'NONE', #300, .T. ) ;
#20 = CARTESIAN_POINT ( 'NONE',  ( 16.46125990315656300, 0.0000000000000000000, 8.919463054943386000E-030 ) ) ;
#21 = ORIENTED_EDGE ( 'NONE', *, *, #45, .T. ) ;
#22 = CARTESIAN_POINT ( 'NONE',  ( 19.27410543748652200, 0.0000000000000000000, 0.0000000000000000000 ) ) ;
#23 =( NAMED_UNIT ( * ) SI_UNIT ( $, .STERADIAN. ) SOLID_ANGLE_UNIT ( ) );
#24 = PRODUCT_CONTEXT ( 'NONE', #138, 'mechanical' ) ;
#25 = AXIS2_PLACEMENT_3D ( 'NONE', #135, #86, #89 ) ;
#26 =( NAMED_UNIT ( * ) PLANE_ANGLE_UNIT ( ) SI_UNIT ( $, .RADIAN. ) );
#27 = ORIENTED_EDGE ( 'NONE', *, *, #313, .F. ) ;
#28 = ORIENTED_EDGE ( 'NONE', *, *, #10, .F. ) ;
#29 = CARTESIAN_POINT ( 'NONE',  ( 1.761259903156561000, 0.0000000000000000000, 0.0000000000000000000 ) ) ;
#30 = EDGE_CURVE ( 'NONE', #66, #78, #85, .T. ) ;
#31 = SPHERICAL_SURFACE ( 'NONE', #133, 20.89000000000000100 ) ;
#32 = ORIENTED_EDGE ( 'NONE', *, *, #235, .T. ) ;
#33 = DIRECTION ( 'NONE',  ( 0.0000000000000000000, 1.224646799147353200E-016, -1.000000000000000000 ) ) ;
#34 = ORIENTED_EDGE ( 'NONE', *, *, #30, .T. ) ;
#35 = STYLED_ITEM ( 'NONE', ( #146 ), #108 ) ;
#36 = CARTESIAN_POINT ( 'NONE',  ( 18.38947935267368200, 0.0000000000000000000, -4.000000000000000000 ) ) ;
#37 =( LENGTH_UNIT ( ) NAMED_UNIT ( * ) SI_UNIT ( .MILLI., .METRE. ) );
#38 = CARTESIAN_POINT ( 'NONE',  ( 1.761259903156561000, 0.0000000000000000000, 0.0000000000000000000 ) ) ;
#39 = DIRECTION ( 'NONE',  ( -1.000000000000000000, -0.0000000000000000000, -0.0000000000000000000 ) ) ;
#40 = DIRECTION ( 'NONE',  ( -1.000000000000000000, -0.0000000000000000000, -0.0000000000000000000 ) ) ;
#41 = COLOUR_RGB ( '',1.000000000000000000, 1.000000000000000000, 1.000000000000000000 ) ;
#42 = AXIS2_PLACEMENT_3D ( 'NONE', #188, #54, #33 ) ;
#43 = ORIENTED_EDGE ( 'NONE', *, *, #291, .F. ) ;
#44 = DIRECTION ( 'NONE',  ( 0.0000000000000000000, 0.0000000000000000000, 1.000000000000000000 ) ) ;
#45 = EDGE_CURVE ( 'NONE', #275, #203, #15, .T. ) ;
#46 = DIRECTION ( 'NONE',  ( 0.0000000000000000000, 0.0000000000000000000, 1.000000000000000000 ) ) ;
#47 = CARTESIAN_POINT ( 'NONE',  ( 16.46125990315656300, 0.0000000000000000000, 8.919463054943386000E-030 ) ) ;
#48 = CIRCLE ( 'NONE', #156, 3.999999999999998200 ) ;
#49 = CARTESIAN_POINT ( 'NONE',  ( 16.46125990315656300, 0.0000000000000000000, 8.919463054943386000E-030 ) ) ;
#50 = DIRECTION ( 'NONE',  ( 0.0000000000000000000, 0.0000000000000000000, 1.000000000000000000 ) ) ;
#51 = EDGE_LOOP ( 'NONE', ( #21, #154, #27, #226 ) ) ;
#52 = CARTESIAN_POINT ( 'NONE',  ( 19.27410543748652200, 0.0000000000000000000, 0.0000000000000000000 ) ) ;
#53 = AXIS2_PLACEMENT_3D ( 'NONE', #321, #271, #263 ) ;
#54 = DIRECTION ( 'NONE',  ( 0.0000000000000000000, -1.000000000000000000, -1.224646799147353200E-016 ) ) ;
#55 = AXIS2_PLACEMENT_3D ( 'NONE', #52, #317, #58 ) ;
#56 = EDGE_LOOP ( 'NONE', ( #320, #34, #172 ) ) ;
#57 = SHAPE_DEFINITION_REPRESENTATION ( #230, #190 ) ;
#58 = DIRECTION ( 'NONE',  ( 0.0000000000000000000, 0.0000000000000000000, 1.000000000000000000 ) ) ;
#59 = EDGE_CURVE ( 'NONE', #84, #7, #312, .T. ) ;
#60 = CARTESIAN_POINT ( 'NONE',  ( 22.26472546388555800, -4.898587196589416800E-016, 4.000000000000002700 ) ) ;
#61 = CARTESIAN_POINT ( 'NONE',  ( 22.26472546388555800, 0.0000000000000000000, 0.0000000000000000000 ) ) ;
#62 = SURFACE_STYLE_USAGE ( .BOTH. , #119 ) ;
#63 = CARTESIAN_POINT ( 'NONE',  ( 19.27410543748652200, -4.898587196589410900E-016, 3.999999999999998200 ) ) ;
#64 = ADVANCED_FACE ( 'NONE', ( #238 ), #96, .T. ) ;
#65 = STYLED_ITEM ( 'NONE', ( #257 ), #69 ) ;
#66 = VERTEX_POINT ( 'NONE', #120 ) ;
#67 = ADVANCED_FACE ( 'NONE', ( #132 ), #270, .T. ) ;
#68 = DIRECTION ( 'NONE',  ( -0.0000000000000000000, -1.000000000000000000, -0.0000000000000000000 ) ) ;
#69 = MANIFOLD_SOLID_BREP ( 'Ðý×ª2', #164 ) ;
#70 = ORIENTED_EDGE ( 'NONE', *, *, #235, .F. ) ;
#71 = CARTESIAN_POINT ( 'NONE',  ( 19.27410543748652200, 0.0000000000000000000, 4.000000000000000000 ) ) ;
#72 = APPLICATION_CONTEXT ( 'automotive_design' ) ;
#73 = AXIS2_PLACEMENT_3D ( 'NONE', #97, #319, #232 ) ;
#74 = CIRCLE ( 'NONE', #205, 4.889999999999998800 ) ;
#75 = VECTOR ( 'NONE', #301, 1000.000000000000000 ) ;
#76 = ADVANCED_FACE ( 'NONE', ( #19 ), #159, .T. ) ;
#77 = ORIENTED_EDGE ( 'NONE', *, *, #199, .T. ) ;
#78 = VERTEX_POINT ( 'NONE', #329 ) ;
#79 = ADVANCED_FACE ( 'NONE', ( #330 ), #237, .T. ) ;
#80 = EDGE_CURVE ( 'NONE', #9, #163, #207, .T. ) ;
#81 = DIRECTION ( 'NONE',  ( 0.0000000000000000000, 1.000000000000000000, -0.0000000000000000000 ) ) ;
#82 = DIRECTION ( 'NONE',  ( -0.0000000000000000000, -1.000000000000000000, -0.0000000000000000000 ) ) ;
#83 = CARTESIAN_POINT ( 'NONE',  ( -0.8160621761658039000, 4.898587196589412800E-016, -4.000000000000000000 ) ) ;
#84 = VERTEX_POINT ( 'NONE', #336 ) ;
#85 = CIRCLE ( 'NONE', #125, 7.080000000000001000 ) ;
#86 = DIRECTION ( 'NONE',  ( -1.000000000000000000, -0.0000000000000000000, -0.0000000000000000000 ) ) ;
#87 = FACE_OUTER_BOUND ( 'NONE', #339, .T. ) ;
#88 = DIRECTION ( 'NONE',  ( 0.0000000000000000000, 1.224646799147353000E-016, -1.000000000000000000 ) ) ;
#89 = DIRECTION ( 'NONE',  ( 0.0000000000000000000, 0.0000000000000000000, 1.000000000000000000 ) ) ;
#90 = DIRECTION ( 'NONE',  ( 0.0000000000000000000, 1.224646799147353200E-016, -1.000000000000000000 ) ) ;
#91 = CIRCLE ( 'NONE', #55, 4.000000000000000000 ) ;
#92 = ORIENTED_EDGE ( 'NONE', *, *, #199, .F. ) ;
#93 = CARTESIAN_POINT ( 'NONE',  ( 16.46125990315656300, 0.0000000000000000000, 8.919463054943386000E-030 ) ) ;
#94 = ORIENTED_EDGE ( 'NONE', *, *, #313, .T. ) ;
#95 = AXIS2_PLACEMENT_3D ( 'NONE', #150, #201, #340 ) ;
#96 = SPHERICAL_SURFACE ( 'NONE', #53, 4.889999999999999700 ) ;
#97 = CARTESIAN_POINT ( 'NONE',  ( -0.8160621761658039000, 0.0000000000000000000, 0.0000000000000000000 ) ) ;
#98 = FACE_OUTER_BOUND ( 'NONE', #290, .T. ) ;
#99 = EDGE_CURVE ( 'NONE', #9, #7, #260, .T. ) ;
#100 = FILL_AREA_STYLE ('',( #302 ) ) ;
#101 = FILL_AREA_STYLE ('',( #227 ) ) ;
#102 = UNCERTAINTY_MEASURE_WITH_UNIT (LENGTH_MEASURE( 1.000000000000000100E-005 ), #266, 'distance_accuracy_value', 'NONE');
#103 = DIRECTION ( 'NONE',  ( 0.0000000000000000000, 0.0000000000000000000, 1.000000000000000000 ) ) ;
#104 = CARTESIAN_POINT ( 'NONE',  ( 24.23125990315655900, 0.0000000000000000000, 0.0000000000000000000 ) ) ;
#105 = CYLINDRICAL_SURFACE ( 'NONE', #115, 3.999999999999998200 ) ;
#106 = AXIS2_PLACEMENT_3D ( 'NONE', #129, #155, #284 ) ;
#107 = DIRECTION ( 'NONE',  ( -1.000000000000000000, -0.0000000000000000000, -0.0000000000000000000 ) ) ;
#108 = MANIFOLD_SOLID_BREP ( 'Ðý×ª1', #204 ) ;
#109 = CYLINDRICAL_SURFACE ( 'NONE', #282, 3.999999999999998200 ) ;
#110 = ORIENTED_EDGE ( 'NONE', *, *, #59, .T. ) ;
#111 = DIRECTION ( 'NONE',  ( 0.0000000000000000000, 0.0000000000000000000, 1.000000000000000000 ) ) ;
#112 = DIRECTION ( 'NONE',  ( -0.0000000000000000000, -1.000000000000000000, -0.0000000000000000000 ) ) ;
#113 = ADVANCED_FACE ( 'NONE', ( #200 ), #124, .F. ) ;
#114 = DIRECTION ( 'NONE',  ( 0.0000000000000000000, -1.000000000000000000, -1.224646799147353200E-016 ) ) ;
#115 = AXIS2_PLACEMENT_3D ( 'NONE', #158, #143, #338 ) ;
#116 = ORIENTED_EDGE ( 'NONE', *, *, #10, .T. ) ;
#117 = CARTESIAN_POINT ( 'NONE',  ( 24.23125990315655900, 0.0000000000000000000, 0.0000000000000000000 ) ) ;
#118 = SURFACE_STYLE_FILL_AREA ( #333 ) ;
#119 = SURFACE_SIDE_STYLE ('',( #191 ) ) ;
#120 = CARTESIAN_POINT ( 'NONE',  ( 18.38947935267368200, -4.898587196589413800E-016, 4.000000000000000000 ) ) ;
#121 = MECHANICAL_DESIGN_GEOMETRIC_PRESENTATION_REPRESENTATION (  '', ( #35 ), #137 ) ;
#122 = SURFACE_SIDE_STYLE ('',( #258 ) ) ;
#123 = ORIENTED_EDGE ( 'NONE', *, *, #17, .T. ) ;
#124 = SPHERICAL_SURFACE ( 'NONE', #106, 4.889999999999998800 ) ;
#125 = AXIS2_PLACEMENT_3D ( 'NONE', #104, #114, #90 ) ;
#126 = DIRECTION ( 'NONE',  ( 0.0000000000000000000, 0.0000000000000000000, 1.000000000000000000 ) ) ;
#127 = CIRCLE ( 'NONE', #95, 4.000000000000000000 ) ;
#128 = DIRECTION ( 'NONE',  ( -0.0000000000000000000, -1.000000000000000000, -0.0000000000000000000 ) ) ;
#129 = CARTESIAN_POINT ( 'NONE',  ( 16.46125990315656300, 0.0000000000000000000, 8.919463054943386000E-030 ) ) ;
#130 = LINE ( 'NONE', #83, #287 ) ;
#131 = APPLICATION_PROTOCOL_DEFINITION ( 'draft international standard', 'automotive_design', 1998, #138 ) ;
#132 = FACE_OUTER_BOUND ( 'NONE', #193, .T. ) ;
#133 = AXIS2_PLACEMENT_3D ( 'NONE', #29, #68, #250 ) ;
#134 = FACE_OUTER_BOUND ( 'NONE', #197, .T. ) ;
#135 = CARTESIAN_POINT ( 'NONE',  ( 22.26472546388555800, 0.0000000000000000000, 0.0000000000000000000 ) ) ;
#136 = ORIENTED_EDGE ( 'NONE', *, *, #343, .T. ) ;
#137 =( GEOMETRIC_REPRESENTATION_CONTEXT ( 3 ) GLOBAL_UNCERTAINTY_ASSIGNED_CONTEXT ( ( #224 ) ) GLOBAL_UNIT_ASSIGNED_CONTEXT ( ( #37, #274, #331 ) ) REPRESENTATION_CONTEXT ( 'NONE', 'WORKASPACE' ) );
#138 = APPLICATION_CONTEXT ( 'automotive_design' ) ;
#139 = CIRCLE ( 'NONE', #315, 4.889999999999998800 ) ;
#140 =( LENGTH_UNIT ( ) NAMED_UNIT ( * ) SI_UNIT ( .MILLI., .METRE. ) );
#141 = COLOUR_RGB ( '',1.000000000000000000, 1.000000000000000000, 1.000000000000000000 ) ;
#142 = ORIENTED_EDGE ( 'NONE', *, *, #295, .F. ) ;
#143 = DIRECTION ( 'NONE',  ( -1.000000000000000000, -0.0000000000000000000, -0.0000000000000000000 ) ) ;
#144 = DIRECTION ( 'NONE',  ( -1.000000000000000000, -0.0000000000000000000, -0.0000000000000000000 ) ) ;
#145 = DIRECTION ( 'NONE',  ( 0.0000000000000000000, 1.000000000000000000, -0.0000000000000000000 ) ) ;
#146 = PRESENTATION_STYLE_ASSIGNMENT (( #62 ) ) ;
#147 = CARTESIAN_POINT ( 'NONE',  ( 19.27410543748652200, 0.0000000000000000000, 0.0000000000000000000 ) ) ;
#148 = ADVANCED_FACE ( 'NONE', ( #168 ), #105, .T. ) ;
#149 = DIRECTION ( 'NONE',  ( -1.000000000000000000, -0.0000000000000000000, -0.0000000000000000000 ) ) ;
#150 = CARTESIAN_POINT ( 'NONE',  ( 18.38947935267368200, 0.0000000000000000000, 0.0000000000000000000 ) ) ;
#151 = VERTEX_POINT ( 'NONE', #63 ) ;
#152 = ADVANCED_FACE ( 'NONE', ( #87 ), #184, .T. ) ;
#153 = AXIS2_PLACEMENT_3D ( 'NONE', #93, #112, #222 ) ;
#154 = ORIENTED_EDGE ( 'NONE', *, *, #182, .T. ) ;
#155 = DIRECTION ( 'NONE',  ( -0.0000000000000000000, -1.000000000000000000, -0.0000000000000000000 ) ) ;
#156 = AXIS2_PLACEMENT_3D ( 'NONE', #22, #40, #292 ) ;
#157 = ORIENTED_EDGE ( 'NONE', *, *, #303, .T. ) ;
#158 = CARTESIAN_POINT ( 'NONE',  ( -0.5519199926577972300, 0.0000000000000000000, 0.0000000000000000000 ) ) ;
#159 = CYLINDRICAL_SURFACE ( 'NONE', #286, 4.000000000000000000 ) ;
#160 = DIRECTION ( 'NONE',  ( 0.0000000000000000000, 0.0000000000000000000, 1.000000000000000000 ) ) ;
#161 = DIRECTION ( 'NONE',  ( 0.0000000000000000000, 0.0000000000000000000, 1.000000000000000000 ) ) ;
#162 = DIRECTION ( 'NONE',  ( -1.000000000000000000, -0.0000000000000000000, -0.0000000000000000000 ) ) ;
#163 = VERTEX_POINT ( 'NONE', #269 ) ;
#164 = CLOSED_SHELL ( 'NONE', ( #148, #67, #189, #113, #213, #305 ) ) ;
#165 = PRODUCT_RELATED_PRODUCT_CATEGORY ( 'part', '', ( #169 ) ) ;
#166 = DIRECTION ( 'NONE',  ( 1.000000000000000000, 0.0000000000000000000, 0.0000000000000000000 ) ) ;
#167 = DIRECTION ( 'NONE',  ( 0.0000000000000000000, 0.0000000000000000000, -1.000000000000000000 ) ) ;
#168 = FACE_OUTER_BOUND ( 'NONE', #296, .T. ) ;
#169 = PRODUCT ( '145150', '145150', '', ( #24 ) ) ;
#170 = AXIS2_PLACEMENT_3D ( 'NONE', #38, #145, #50 ) ;
#171 = UNCERTAINTY_MEASURE_WITH_UNIT (LENGTH_MEASURE( 1.000000000000000100E-005 ), #140, 'distance_accuracy_value', 'NONE');
#172 = ORIENTED_EDGE ( 'NONE', *, *, #343, .F. ) ;
#173 = APPLICATION_PROTOCOL_DEFINITION ( 'draft international standard', 'automotive_design', 1998, #72 ) ;
#174 = DIRECTION ( 'NONE',  ( -1.000000000000000000, -0.0000000000000000000, -0.0000000000000000000 ) ) ;
#175 = EDGE_CURVE ( 'NONE', #231, #66, #127, .T. ) ;
#176 = CIRCLE ( 'NONE', #259, 4.889999999999999700 ) ;
#177 = DIRECTION ( 'NONE',  ( 0.0000000000000000000, 1.000000000000000000, -0.0000000000000000000 ) ) ;
#178 = DIRECTION ( 'NONE',  ( 0.0000000000000000000, 1.000000000000000000, 0.0000000000000000000 ) ) ;
#179 = ORIENTED_EDGE ( 'NONE', *, *, #268, .T. ) ;
#180 = ORIENTED_EDGE ( 'NONE', *, *, #30, .F. ) ;
#181 = ADVANCED_FACE ( 'NONE', ( #217 ), #277, .T. ) ;
#182 = EDGE_CURVE ( 'NONE', #203, #231, #130, .T. ) ;
#183 = CIRCLE ( 'NONE', #170, 20.89000000000000100 ) ;
#184 = SPHERICAL_SURFACE ( 'NONE', #4, 4.889999999999999700 ) ;
#185 = PRODUCT_DEFINITION_CONTEXT ( 'detailed design', #72, 'design' ) ;
#186 = CARTESIAN_POINT ( 'NONE',  ( 21.35125990315656000, 0.0000000000000000000, -2.994261423915188300E-016 ) ) ;
#187 = DIRECTION ( 'NONE',  ( 0.0000000000000000000, -1.000000000000000000, -1.224646799147353200E-016 ) ) ;
#188 = CARTESIAN_POINT ( 'NONE',  ( 1.761259903156561000, 0.0000000000000000000, 0.0000000000000000000 ) ) ;
#189 = ADVANCED_FACE ( 'NONE', ( #337 ), #342, .F. ) ;
#190 = ADVANCED_BREP_SHAPE_REPRESENTATION ( '145150', ( #108, #69, #243 ), #208 ) ;
#191 = SURFACE_STYLE_FILL_AREA ( #101 ) ;
#192 = CARTESIAN_POINT ( 'NONE',  ( -0.8160621761658039000, 0.0000000000000000000, 4.000000000000000000 ) ) ;
#193 = EDGE_LOOP ( 'NONE', ( #306, #110, #2 ) ) ;
#194 = AXIS2_PLACEMENT_3D ( 'NONE', #276, #265, #160 ) ;
#195 = DIRECTION ( 'NONE',  ( 0.0000000000000000000, 0.0000000000000000000, 1.000000000000000000 ) ) ;
#196 = LINE ( 'NONE', #254, #272 ) ;
#197 = EDGE_LOOP ( 'NONE', ( #311, #3, #241, #307 ) ) ;
#198 = PRODUCT_DEFINITION_FORMATION_WITH_SPECIFIED_SOURCE ( 'ÈÎºÎ', '', #169, .NOT_KNOWN. ) ;
#199 = EDGE_CURVE ( 'NONE', #203, #275, #91, .T. ) ;
#200 = FACE_OUTER_BOUND ( 'NONE', #242, .T. ) ;
#201 = DIRECTION ( 'NONE',  ( -1.000000000000000000, -0.0000000000000000000, -0.0000000000000000000 ) ) ;
#202 = CARTESIAN_POINT ( 'NONE',  ( 24.23125990315655900, 0.0000000000000000000, 0.0000000000000000000 ) ) ;
#203 = VERTEX_POINT ( 'NONE', #289 ) ;
#204 = CLOSED_SHELL ( 'NONE', ( #152, #181, #253, #79, #76, #64 ) ) ;
#205 = AXIS2_PLACEMENT_3D ( 'NONE', #49, #187, #88 ) ;
#206 =( GEOMETRIC_REPRESENTATION_CONTEXT ( 3 ) GLOBAL_UNCERTAINTY_ASSIGNED_CONTEXT ( ( #102 ) ) GLOBAL_UNIT_ASSIGNED_CONTEXT ( ( #266, #264, #23 ) ) REPRESENTATION_CONTEXT ( 'NONE', 'WORKASPACE' ) );
#207 = LINE ( 'NONE', #209, #341 ) ;
#208 =( GEOMETRIC_REPRESENTATION_CONTEXT ( 3 ) GLOBAL_UNCERTAINTY_ASSIGNED_CONTEXT ( ( #171 ) ) GLOBAL_UNIT_ASSIGNED_CONTEXT ( ( #140, #220, #316 ) ) REPRESENTATION_CONTEXT ( 'NONE', 'WORKASPACE' ) );
#209 = CARTESIAN_POINT ( 'NONE',  ( -0.5519199926577972300, 4.898587196589410900E-016, -3.999999999999998200 ) ) ;
#210 = CARTESIAN_POINT ( 'NONE',  ( 21.35125990315656000, 0.0000000000000000000, 2.994261423915367700E-016 ) ) ;
#211 = DIRECTION ( 'NONE',  ( -1.000000000000000000, -0.0000000000000000000, -0.0000000000000000000 ) ) ;
#212 = EDGE_LOOP ( 'NONE', ( #180, #94, #136 ) ) ;
#213 = ADVANCED_FACE ( 'NONE', ( #98 ), #31, .T. ) ;
#214 =( LENGTH_UNIT ( ) NAMED_UNIT ( * ) SI_UNIT ( .MILLI., .METRE. ) );
#215 = EDGE_LOOP ( 'NONE', ( #249, #116, #92 ) ) ;
#216 = AXIS2_PLACEMENT_3D ( 'NONE', #202, #82, #167 ) ;
#217 = FACE_OUTER_BOUND ( 'NONE', #51, .T. ) ;
#218 = DIRECTION ( 'NONE',  ( 0.0000000000000000000, -1.224646799147353200E-016, 1.000000000000000000 ) ) ;
#219 = MECHANICAL_DESIGN_GEOMETRIC_PRESENTATION_REPRESENTATION (  '', ( #261 ), #206 ) ;
#220 =( NAMED_UNIT ( * ) PLANE_ANGLE_UNIT ( ) SI_UNIT ( $, .RADIAN. ) );
#221 = ORIENTED_EDGE ( 'NONE', *, *, #291, .T. ) ;
#222 = DIRECTION ( 'NONE',  ( 0.0000000000000000000, 0.0000000000000000000, -1.000000000000000000 ) ) ;
#223 = CIRCLE ( 'NONE', #194, 4.000000000000000000 ) ;
#224 = UNCERTAINTY_MEASURE_WITH_UNIT (LENGTH_MEASURE( 1.000000000000000100E-005 ), #37, 'distance_accuracy_value', 'NONE');
#225 = AXIS2_PLACEMENT_3D ( 'NONE', #281, #247, #239 ) ;
#226 = ORIENTED_EDGE ( 'NONE', *, *, #347, .F. ) ;
#227 = FILL_AREA_STYLE_COLOUR ( '', #41 ) ;
#228 = MECHANICAL_DESIGN_GEOMETRIC_PRESENTATION_REPRESENTATION (  '', ( #65 ), #334 ) ;
#229 = CARTESIAN_POINT ( 'NONE',  ( -0.5519199926577972300, 0.0000000000000000000, 0.0000000000000000000 ) ) ;
#230 = PRODUCT_DEFINITION_SHAPE ( 'NONE', 'NONE',  #324 ) ;
#231 = VERTEX_POINT ( 'NONE', #36 ) ;
#232 = DIRECTION ( 'NONE',  ( 0.0000000000000000000, 0.0000000000000000000, 1.000000000000000000 ) ) ;
#233 = ORIENTED_EDGE ( 'NONE', *, *, #347, .T. ) ;
#234 = ORIENTED_EDGE ( 'NONE', *, *, #80, .T. ) ;
#235 = EDGE_CURVE ( 'NONE', #326, #163, #139, .T. ) ;
#236 = LINE ( 'NONE', #192, #75 ) ;
#237 = SPHERICAL_SURFACE ( 'NONE', #216, 7.080000000000001000 ) ;
#238 = FACE_OUTER_BOUND ( 'NONE', #215, .T. ) ;
#239 = DIRECTION ( 'NONE',  ( 0.0000000000000000000, 0.0000000000000000000, -1.000000000000000000 ) ) ;
#240 = PRESENTATION_LAYER_ASSIGNMENT (  '', '', ( #65 ) ) ;
#241 = ORIENTED_EDGE ( 'NONE', *, *, #322, .T. ) ;
#242 = EDGE_LOOP ( 'NONE', ( #346, #32, #157 ) ) ;
#243 = AXIS2_PLACEMENT_3D ( 'NONE', #262, #195, #166 ) ;
#244 = DIRECTION ( 'NONE',  ( -1.000000000000000000, -0.0000000000000000000, -0.0000000000000000000 ) ) ;
#245 = AXIS2_PLACEMENT_3D ( 'NONE', #298, #149, #12 ) ;
#246 = CIRCLE ( 'NONE', #328, 4.889999999999999700 ) ;
#247 = DIRECTION ( 'NONE',  ( -0.0000000000000000000, -1.000000000000000000, -0.0000000000000000000 ) ) ;
#248 = SURFACE_STYLE_USAGE ( .BOTH. , #293 ) ;
#249 = ORIENTED_EDGE ( 'NONE', *, *, #17, .F. ) ;
#250 = DIRECTION ( 'NONE',  ( 0.0000000000000000000, 0.0000000000000000000, -1.000000000000000000 ) ) ;
#251 = EDGE_CURVE ( 'NONE', #84, #9, #183, .T. ) ;
#252 = PRESENTATION_STYLE_ASSIGNMENT (( #248 ) ) ;
#253 = ADVANCED_FACE ( 'NONE', ( #267 ), #288, .T. ) ;
#254 = CARTESIAN_POINT ( 'NONE',  ( -0.5519199926577972300, 0.0000000000000000000, 3.999999999999998200 ) ) ;
#255 = CARTESIAN_POINT ( 'NONE',  ( 16.46125990315656300, 0.0000000000000000000, 8.919463054943386000E-030 ) ) ;
#256 = CARTESIAN_POINT ( 'NONE',  ( 24.23125990315655900, 0.0000000000000000000, 0.0000000000000000000 ) ) ;
#257 = PRESENTATION_STYLE_ASSIGNMENT (( #1 ) ) ;
#258 = SURFACE_STYLE_FILL_AREA ( #100 ) ;
#259 = AXIS2_PLACEMENT_3D ( 'NONE', #255, #6, #218 ) ;
#260 = CIRCLE ( 'NONE', #25, 3.999999999999998200 ) ;
#261 = STYLED_ITEM ( 'NONE', ( #252 ), #190 ) ;
#262 = CARTESIAN_POINT ( 'NONE',  ( 0.0000000000000000000, 0.0000000000000000000, 0.0000000000000000000 ) ) ;
#263 = DIRECTION ( 'NONE',  ( 0.0000000000000000000, 0.0000000000000000000, 1.000000000000000000 ) ) ;
#264 =( NAMED_UNIT ( * ) PLANE_ANGLE_UNIT ( ) SI_UNIT ( $, .RADIAN. ) );
#265 = DIRECTION ( 'NONE',  ( -1.000000000000000000, -0.0000000000000000000, -0.0000000000000000000 ) ) ;
#266 =( LENGTH_UNIT ( ) NAMED_UNIT ( * ) SI_UNIT ( .MILLI., .METRE. ) );
#267 = FACE_OUTER_BOUND ( 'NONE', #56, .T. ) ;
#268 = EDGE_CURVE ( 'NONE', #326, #151, #74, .T. ) ;
#269 = CARTESIAN_POINT ( 'NONE',  ( 19.27410543748652200, 0.0000000000000000000, -3.999999999999998200 ) ) ;
#270 = SPHERICAL_SURFACE ( 'NONE', #225, 20.89000000000000100 ) ;
#271 = DIRECTION ( 'NONE',  ( 0.0000000000000000000, 1.000000000000000000, 0.0000000000000000000 ) ) ;
#272 = VECTOR ( 'NONE', #144, 1000.000000000000000 ) ;
#273 = FILL_AREA_STYLE_COLOUR ( '', #11 ) ;
#274 =( NAMED_UNIT ( * ) PLANE_ANGLE_UNIT ( ) SI_UNIT ( $, .RADIAN. ) );
#275 = VERTEX_POINT ( 'NONE', #71 ) ;
#276 = CARTESIAN_POINT ( 'NONE',  ( 18.38947935267368200, 0.0000000000000000000, 0.0000000000000000000 ) ) ;
#277 = CYLINDRICAL_SURFACE ( 'NONE', #73, 4.000000000000000000 ) ;
#278 =( NAMED_UNIT ( * ) SI_UNIT ( $, .STERADIAN. ) SOLID_ANGLE_UNIT ( ) );
#279 = ORIENTED_EDGE ( 'NONE', *, *, #295, .T. ) ;
#280 = ORIENTED_EDGE ( 'NONE', *, *, #322, .F. ) ;
#281 = CARTESIAN_POINT ( 'NONE',  ( 1.761259903156561000, 0.0000000000000000000, 0.0000000000000000000 ) ) ;
#282 = AXIS2_PLACEMENT_3D ( 'NONE', #229, #244, #8 ) ;
#283 = CIRCLE ( 'NONE', #308, 7.080000000000001000 ) ;
#284 = DIRECTION ( 'NONE',  ( 0.0000000000000000000, 0.0000000000000000000, -1.000000000000000000 ) ) ;
#285 = ORIENTED_EDGE ( 'NONE', *, *, #182, .F. ) ;
#286 = AXIS2_PLACEMENT_3D ( 'NONE', #327, #162, #126 ) ;
#287 = VECTOR ( 'NONE', #107, 1000.000000000000000 ) ;
#288 = SPHERICAL_SURFACE ( 'NONE', #299, 7.080000000000001000 ) ;
#289 = CARTESIAN_POINT ( 'NONE',  ( 19.27410543748652200, 4.898587196589412800E-016, -4.000000000000000000 ) ) ;
#290 = EDGE_LOOP ( 'NONE', ( #18, #297, #43 ) ) ;
#291 = EDGE_CURVE ( 'NONE', #7, #9, #309, .T. ) ;
#292 = DIRECTION ( 'NONE',  ( 0.0000000000000000000, 0.0000000000000000000, 1.000000000000000000 ) ) ;
#293 = SURFACE_SIDE_STYLE ('',( #118 ) ) ;
#294 = CIRCLE ( 'NONE', #245, 3.999999999999998200 ) ;
#295 = EDGE_CURVE ( 'NONE', #151, #163, #294, .T. ) ;
#296 = EDGE_LOOP ( 'NONE', ( #221, #234, #142, #280 ) ) ;
#297 = ORIENTED_EDGE ( 'NONE', *, *, #251, .T. ) ;
#298 = CARTESIAN_POINT ( 'NONE',  ( 19.27410543748652200, 0.0000000000000000000, 0.0000000000000000000 ) ) ;
#299 = AXIS2_PLACEMENT_3D ( 'NONE', #117, #128, #325 ) ;
#300 = EDGE_LOOP ( 'NONE', ( #285, #77, #233, #323 ) ) ;
#301 = DIRECTION ( 'NONE',  ( -1.000000000000000000, -0.0000000000000000000, -0.0000000000000000000 ) ) ;
#302 = FILL_AREA_STYLE_COLOUR ( '', #141 ) ;
#303 = EDGE_CURVE ( 'NONE', #163, #151, #48, .T. ) ;
#304 = DIRECTION ( 'NONE',  ( 0.0000000000000000000, -1.000000000000000000, 0.0000000000000000000 ) ) ;
#305 = ADVANCED_FACE ( 'NONE', ( #134 ), #109, .T. ) ;
#306 = ORIENTED_EDGE ( 'NONE', *, *, #251, .F. ) ;
#307 = ORIENTED_EDGE ( 'NONE', *, *, #303, .F. ) ;
#308 = AXIS2_PLACEMENT_3D ( 'NONE', #256, #177, #103 ) ;
#309 = CIRCLE ( 'NONE', #332, 3.999999999999998200 ) ;
#310 = PRESENTATION_LAYER_ASSIGNMENT (  '', '', ( #261 ) ) ;
#311 = ORIENTED_EDGE ( 'NONE', *, *, #80, .F. ) ;
#312 = CIRCLE ( 'NONE', #42, 20.89000000000000100 ) ;
#313 = EDGE_CURVE ( 'NONE', #66, #231, #223, .T. ) ;
#314 = VERTEX_POINT ( 'NONE', #210 ) ;
#315 = AXIS2_PLACEMENT_3D ( 'NONE', #13, #81, #161 ) ;
#316 =( NAMED_UNIT ( * ) SI_UNIT ( $, .STERADIAN. ) SOLID_ANGLE_UNIT ( ) );
#317 = DIRECTION ( 'NONE',  ( -1.000000000000000000, -0.0000000000000000000, -0.0000000000000000000 ) ) ;
#318 = PRESENTATION_LAYER_ASSIGNMENT (  '', '', ( #35 ) ) ;
#319 = DIRECTION ( 'NONE',  ( -1.000000000000000000, -0.0000000000000000000, -0.0000000000000000000 ) ) ;
#320 = ORIENTED_EDGE ( 'NONE', *, *, #175, .T. ) ;
#321 = CARTESIAN_POINT ( 'NONE',  ( 16.46125990315656300, 0.0000000000000000000, 8.919463054943386000E-030 ) ) ;
#322 = EDGE_CURVE ( 'NONE', #7, #151, #196, .T. ) ;
#323 = ORIENTED_EDGE ( 'NONE', *, *, #175, .F. ) ;
#324 = PRODUCT_DEFINITION ( 'Î´Öª', '', #198, #185 ) ;
#325 = DIRECTION ( 'NONE',  ( 0.0000000000000000000, 0.0000000000000000000, -1.000000000000000000 ) ) ;
#326 = VERTEX_POINT ( 'NONE', #186 ) ;
#327 = CARTESIAN_POINT ( 'NONE',  ( -0.8160621761658039000, 0.0000000000000000000, 0.0000000000000000000 ) ) ;
#328 = AXIS2_PLACEMENT_3D ( 'NONE', #47, #304, #344 ) ;
#329 = CARTESIAN_POINT ( 'NONE',  ( 17.15125990315655700, 0.0000000000000000000, -4.335249668981631100E-016 ) ) ;
#330 = FACE_OUTER_BOUND ( 'NONE', #212, .T. ) ;
#331 =( NAMED_UNIT ( * ) SI_UNIT ( $, .STERADIAN. ) SOLID_ANGLE_UNIT ( ) );
#332 = AXIS2_PLACEMENT_3D ( 'NONE', #61, #211, #111 ) ;
#333 = FILL_AREA_STYLE ('',( #273 ) ) ;
#334 =( GEOMETRIC_REPRESENTATION_CONTEXT ( 3 ) GLOBAL_UNCERTAINTY_ASSIGNED_CONTEXT ( ( #16 ) ) GLOBAL_UNIT_ASSIGNED_CONTEXT ( ( #214, #26, #278 ) ) REPRESENTATION_CONTEXT ( 'NONE', 'WORKASPACE' ) );
#335 = AXIS2_PLACEMENT_3D ( 'NONE', #147, #174, #46 ) ;
#336 = CARTESIAN_POINT ( 'NONE',  ( 22.65125990315656400, 0.0000000000000000000, -1.279143581709410600E-015 ) ) ;
#337 = FACE_OUTER_BOUND ( 'NONE', #14, .T. ) ;
#338 = DIRECTION ( 'NONE',  ( 0.0000000000000000000, 0.0000000000000000000, 1.000000000000000000 ) ) ;
#339 = EDGE_LOOP ( 'NONE', ( #28, #123, #345 ) ) ;
#340 = DIRECTION ( 'NONE',  ( 0.0000000000000000000, 0.0000000000000000000, 1.000000000000000000 ) ) ;
#341 = VECTOR ( 'NONE', #39, 1000.000000000000000 ) ;
#342 = SPHERICAL_SURFACE ( 'NONE', #153, 4.889999999999998800 ) ;
#343 = EDGE_CURVE ( 'NONE', #231, #78, #283, .T. ) ;
#344 = DIRECTION ( 'NONE',  ( 0.0000000000000000000, 0.0000000000000000000, -1.000000000000000000 ) ) ;
#345 = ORIENTED_EDGE ( 'NONE', *, *, #45, .F. ) ;
#346 = ORIENTED_EDGE ( 'NONE', *, *, #268, .F. ) ;
#347 = EDGE_CURVE ( 'NONE', #275, #66, #236, .T. ) ;
ENDSEC;
END-ISO-10303-21;
